Song name
# A B C D E F G H I J K L M N O P Q R S T U V W X Y Z

Offspring - Pay The Man tab

Tuning: E, A, D, G, B, e

this tab is only for the fast part that starts at about 4:50 in the song.
All tabs ive seen on this song has been a little bit wrong (in my opinion)
so now im going to tab it as i think it is xD


. = PM
x = Mute with your frethand on strings

Clean.
|-------------------------------------------------------------|X2
|-------------------------------------------------------------|
|---7-7/9---9--9-7-7/9-9-9-5--5-7-7/9---9--9-7-7/9-X-14-X-13--|
|---7-7/9---9--9-7-7/9-9-9-5--5-7-7/9---9--9-7-7/9-X-14-X-13--|
|---5-5/7---7--7-5-5/7-7-7-3--3-5-5/7---7--7-5-5/7-X-12-X-11--|
|---------0---------------------------0------------X----X-----|

In the beginning of the secound repeat the second guitar plays

with dist.
|------------|
|------------|
|------------|
|---2~~------|
|---2~~------|
|---0~~------|


Then they play this together

With dist.
|-----------------------------------------------------------|X2
|-----------------------------------------------------------|
|---7-7/9---9--9-7-7/9-9-5--5-7-7/9---9--9-7-7/9-X-14-X-13--|
|---7-7/9---9--9-7-7/9-9-5--5-7-7/9---9--9-7-7/9-X-14-X-13--|
|---5-5/7---7--7-5-5/7-7-3--3-5-5/7---7--7-5-5/7-x-12-X-11--|
|---------0-------------------------0------------x----X-----|


Verse

with dist.
|--------------------------------------------------------------------|X4
|--------------------------------------------------------------------|
|--------------------------------------------------------------------|
|---7-7-9-x-x-9-9-9-7-7-9-x-x-5-5-5-7-7-9-x-x-9-9-9-7-7-9-x-14-x-13--|
|---5-5-7-x-x-7-7-7-5-5-7-x-x-3-3-3-5-5-7-x-x-7-7-7-5-5-7-x-12-x-11--|
|--------------------------------------------------------------------|
    . . . . . . . . . . . . . . . . . . . . . . . . . . . .  . . .


One with dist and one clean.
|-------------------------------------------------|X4
|-------------------------------------------------|
|---7~--7--7-7--5~-5-5-5-5------------------------|
|---7~--7--7-7--5~-5-5-5-5--2---2--2-2-2-2-2-2-2--|
|---5~--5--5-5--3~-3-3-3-3--2---2--2-2-2-2-2-2-2--|
|---------------------------0---0--0-0-0-0-0-0-0--|


With dist.
|-----------------------------------------------------------|X2
|-----------------------------------------------------------|
|---7-7/9---9--9-7-7/9-9-5--5-7-7/9---9--9-7-7/9-X-14-X-13--|
|---7-7/9---9--9-7-7/9-9-5--5-7-7/9---9--9-7-7/9-X-14-X-13--|
|---5-5/7---7--7-5-5/7-7-3--3-5-5/7---7--7-5-5/7-x-12-X-11--|
|---------0-------------------------0------------x----X-----|


with dist.
|--------------------------------------------------------------------|X4
|--------------------------------------------------------------------|
|--------------------------------------------------------------------|
|---7-7-9-x-x-9-9-9-7-7-9-x-x-5-5-5-7-7-9-x-x-9-9-9-7-7-9-x-14-x-13--|
|---5-5-7-x-x-7-7-7-5-5-7-x-x-3-3-3-5-5-7-x-x-7-7-7-5-5-7-x-12-x-11--|
|--------------------------------------------------------------------|
    . . . . . . . . . . . . . . . . . . . . . . . . . . . .  . . .

                                
|-----------------------------|X3 ---\
|-----------------------------|       \
|--7-7/9---9--9-7-7/9-9-5--5--|        \
|--7-7/9---9--9-7-7/9-9-5--5--|          \
|--5-5/7---7--7-5-5/7-7-3--3--|            \
|--------0--------------------|              \
                                              |
  THEN                                       <   X2
                                              |
|-------------------------------|X1          /
|-------------------------------|          /
|--7-7/9---9--9-7-7/9-x-14-x-13-|        /
|--7-7/9---9--9-7-7/9-x-14-x-13-|      /
|--5-5/7---7--7-5-5/7-x-12-x-11-|     /
|--------0------------x----x----| ---/



One with dist and one clean.
|-------------------------------------------------|X4
|-------------------------------------------------|
|---7~--7--7-7--5~-5-5-5-5------------------------|
|---7~--7--7-7--5~-5-5-5-5--2---2--2-2-2-2-2-2-2--|
|---5~--5--5-5--3~-3-3-3-3--2---2--2-2-2-2-2-2-2--|
|---------------------------0---0--0-0-0-0-0-0-0--|
                              ^ 
on the forth time stop there  |

clean.
|-------------------------------------------------------------|X1
|-------------------------------------------------------------|
|---7-7/9---9--9-7-7/9-9-9-5--5-7-7/9---9--9-7-7/9-X-14-X-13--|
|---7-7/9---9--9-7-7/9-9-9-5--5-7-7/9---9--9-7-7/9-X-14-X-13--|
|---5-5/7---7--7-5-5/7-7-7-3--3-5-5/7---7--7-5-5/7-X-12-X-11--|
|---------0---------------------------0------------X----X-----|

With dist.
|-----------------------------------------------------------|X1
|-----------------------------------------------------------|
|---7-7/9---9--9-7-7/9-9-5--5-7-7/9---9--9-7-7/9-X-14-X-13--|
|---7-7/9---9--9-7-7/9-9-5--5-7-7/9---9--9-7-7/9-X-14-X-13--|
|---5-5/7---7--7-5-5/7-7-3--3-5-5/7---7--7-5-5/7-x-12-X-11--|
|---------0-------------------------0------------x----X-----|


with dist.
|--------------------------------------------------------------------|X2
|--------------------------------------------------------------------|
|--------------------------------------------------------------------|
|---7-7-9-x-x-9-9-9-7-7-9-x-x-5-5-5-7-7-9-x-x-9-9-9-7-7-9-x-14-x-13--|
|---5-5-7-x-x-7-7-7-5-5-7-x-x-3-3-3-5-5-7-x-x-7-7-7-5-5-7-x-12-x-11--|
|--------------------------------------------------------------------|
    . . . . . . . . . . . . . . . . . . . . . . . . . . . .  . . .



With dist.
|-----------------------------------------------------------|X2
|-----------------------------------------------------------|
|---7-7/9---9--9-7-7/9-9-5--5-7-7/9---9--9-7-7/9-X-14-X-13--|
|---7-7/9---9--9-7-7/9-9-5--5-7-7/9---9--9-7-7/9-X-14-X-13--|
|---5-5/7---7--7-5-5/7-7-3--3-5-5/7---7--7-5-5/7-x-12-X-11--|
|---------0-------------------------0------------x----X-----|


One with dist and one clean.
|-------------------------------------------------|X2
|-------------------------------------------------|
|---7~--7--7-7--5~-5-5-5-5------------------------|
|---7~--7--7-7--5~-5-5-5-5--2---2--2-2-2-2-2-2-2--|
|---5~--5--5-5--3~-3-3-3-3--2---2--2-2-2-2-2-2-2--|
|---------------------------0---0--0-0-0-0-0-0-0--|

Only clean


|------------------------------0-0-0-0-0-0-0-0--|
|------------------------------0-0-0-0-0-0-0-0--|
|---7----7-7-7--5----5-5-5-----0-0-0-0-0-0-0-0--|
|---7----7-7-7--5----5-5-5--2--2-2-2-2-2-2-2-2--|
|---5----5-5-5--3----3-3-3--2--2-2-2-2-2-2-2-2--|
|---------------------------0--0-0-0-0-0-0-0-0--|
                              ^                              
                              |
        Second time stop here |


So! That was it! I hope you enjoy it and think its correct.

Tabbed by: Niklas Pettersson
Tap to rate this tab
# A B C D E F G H I J K L M N O P Q R S T U V W X Y Z