Song name
# A B C D E F G H I J K L M N O P Q R S T U V W X Y Z

Offspring - Original Prankster tab

Song: Original Prankster 
Artist: The Offspring 
Tuning: Standard 
Tabbed by: Shorts (shorts_99@hotmail.com) 
Email me if you want to request a tab or think im way off. 
Tabs:110% Correct! 

Riff 1 
|----------------------------------------------| 
|----------------------------------------------| 
|----------------------------------------------| 
|----------------------7-----------------------| 
|0-0-3-0-0-----0-0-3-0---0-3-0---0-0-3-0-0----5| 
|----------------------------------------------| 

Riff 2 
|-------------------------| 
|-------------------------| 
|-------------------------| 
|--------7----------------| 
|0-0-3-0---0-0-5-0-5-0-3-5| 
|-------------------------| 

Verse 
|-------------------------| 
|-------------------------| 
|-------------------------| 
|--------7----------------| 
|0-0-3-0---0-6-5-0-5-0-3-5| 
|-------------------------| 
Palm Muted................ 

|-------------------------------| 
|-------------------------------| 
|----------------9-9-9-9-9-9-9-9| 
|5-5-5-5-5-5-5-5-7-7-7-7-7-7-7-7| 
|5-5-5-5-5-5-5-5-7-7-7-7-7-7-7-7| 
|3-3-3-3-3-3-3-3----------------| 
Palm Muted...................... 

Bridge 
|-------------------------| 
|-------------------------| 
|2-3-5-9-7-7-5-7-5--------| 
|2-3-5-9-7-7-5-7-5--------| 
|0-1-3-7-5-5-3-5-3--------| 
|-------------------------| 
"Knock down the walls.." 

Chorusx3 
|-------------------------| 
|--------8-8--------------| 
|----7-7-7-7--------------| 
|7-7-7-7-5-5--------------| 
|7-7-5-5------------------| 
|5-5----------------------| 
"Bust Out..." 

|-------------------------| 
|8---8---8-8-8-8----------| 
|7-7-7-7-7-7-7-7----------| 
|5-7-5-7-5-5-5-5----------| 
|--5---5------------------| 
|-------------------------| 
"Stop now..." 

End on 
|-------------------------| 
|-9-----------------------| 
|-8-----------------------| 
|-6-----------------------| 
|-------------------------| 
|-------------------------|
Tap to rate this tab
# A B C D E F G H I J K L M N O P Q R S T U V W X Y Z