Song name
# A B C D E F G H I J K L M N O P Q R S T U V W X Y Z

Offspring - Dammit , I Changed Again tab

Offspring
Dammit,I changed again
by: Mariano Garay


INTRO:

1------------
2------------
3------------
4------1-----
5------1-----
6------3-(let ring)

1------------------------------------------
2------------------------------------------
3------------------------------------------
4-------6-5-6----6-5-6--6-5-6--8--6-5-6----
5-----8-------4--------6----------------8--
6------------------------------------------

chorus:

1---------------------
2---------------------
3---------10--6-----8-
4---------10--6--6--8-
5----------8--4--6--6-
6----------------4----

1--------------------------------------
2--------------------------------------
3---10-----10-----6--6----5---5--8-8---
4------10-----10----6--6----6--6--8-8--
5--------------------------------------
6--------------------------------------

by Mariano Garay
for more chords of Green Day,Offspring,A77AQUE
send to:
garaymariano@hotmail.com
Tap to rate this tab
# A B C D E F G H I J K L M N O P Q R S T U V W X Y Z