Song name
# A B C D E F G H I J K L M N O P Q R S T U V W X Y Z

Offspring - Pretty Fly Reprise tab

-------------------------------------------------------------------------------
			     PRETTY FLY (REPRISE) (Pay The Man bonus track) - The Offspring
-------------------------------------------------------------------------------
Tabbed by:Bohnooze
Email:NOSPAMmota1000@o2.pl

Tuning:Standard

Album: Americana (1998)

Mariachi Campestre: 
guitar: Carlos Gomez
guitaron: Raul Garieay
trumped: Pedro Pina
bihuela: Alvaro Macias
violin: Miguel Gonzales

It's 80% correct
MAIN SOLO VIOLIN PART


e|----3---3-----3-6-10-9/10------6-5-6-8-10-9-10----11-10-8---------------|
B|--3-------3-------------------------------------------------------------|
G|------------------------------------------------------------------------|
D|------------------------------------------------------------------------|
A|------------------------------------------------------------------------|
E|------------------------------------------------------------------------|

e|----2---2-----2-5-7/9\8-------6-5-6--8-6-8---10-8\6---------8/10-8--8\6--|
B|--3-------3--------------------------------------------------------------|
G|-------------------------------------------------------------------------|
D|-------------------------------------------------------------------------|
A|-------------------------------------------------------------------------|
E|-------------------------------------------------------------------------|

e|----3---3-----3-6-10\11------8-7-8--10-9-10-/-15-13-15-\-14-\-13-11-----|
B|--3-------3-------------------------------------------------------------|
G|------------------------------------------------------------------------|
D|------------------------------------------------------------------------|
A|------------------------------------------------------------------------|
E|------------------------------------------------------------------------|

e|---11\10-8--8-11-10----8\6--6-10-8----8\6\5--5-8-6---6\5---3/5\3-------|
B|-----------------------------------------------------------------------|
G|-----------------------------------------------------------------------|
D|-----------------------------------------------------------------------|
A|-----------------------------------------------------------------------|
E|-----------------------------------------------------------------------|

TRUMPED PART

e|----3---3-----3-6-10-9/10------7-6-8----10-9-10---11-10-8---------------|
B|--3-------3-------------------------------------------------------------|
G|------------------------------------------------------------------------|
D|------------------------------------------------------------------------|
A|------------------------------------------------------------------------|
E|------------------------------------------------------------------------|

e|----2---2-2----2-5-8-------6-5-6---8-6-8---10-8\6-----------------------|
B|--3---3-----3-----------------------------------------------------------|
G|------------------------------------------------------------------------|
D|------------------------------------------------------------------------|
A|------------------------------------------------------------------------|
E|------------------------------------------------------------------------|

e|----3---3------3-6-10------3-6-8-10-9\10---/--15-13-15-11---------------|
B|--3-------3-------------------------------------------------------------|
G|------------------------------------------------------------------------|
D|------------------------------------------------------------------------|
A|------------------------------------------------------------------------|
E|------------------------------------------------------------------------|

e|---11\10-8--8-11-10----8\6--6-10-8----8\6\5--5-8-6---6\5---3/5\3--------|
B|------------------------------------------------------------------------|
G|------------------------------------------------------------------------|
D|------------------------------------------------------------------------|
A|------------------------------------------------------------------------|
E|------------------------------------------------------------------------|

OR VER 2 TRUMPED PART

e|------------------------------------------------------------------------|
B|------------------------------------------------------------------------|
G|-----------------3-7--------3-3-5-7-5-7--8-7-5--------------------------|
D|-----0-5-5-0---5--------------------------------------------------------|
A|------------------------------------------------------------------------|
E|------------------------------------------------------------------------|

e|------------------------------------------------------------------------|
B|------------------------------------------------------------------------|
G|-----------------------2-5--------2-2-3-5-3-5--7-5-3--------------------|
D|-----0-4-0-4-4-0-----4--------------------------------------------------|
A|------------------------------------------------------------------------|
E|------------------------------------------------------------------------|

e|------------------------------------------------------------------------|
B|------------------------------------------------------------------------|
G|-----------------3-7--------3-3-5-7-5-7---12--10--12-10-8---------------|
D|-----0-5-5-0---5--------------------------------------------------------|
A|------------------------------------------------------------------------|
E|------------------------------------------------------------------------|

e|-----------------------------------------------------------------------|
B|-----------------------------------------------------------------------|
G|-------------5-5--8-7-5------3-3--7-5-3---2-2--5-3-2-0-----------------|
D|-----------------------------------------------------------------------|
A|-----------------------------------------------------------------------|
E|-----------------------------------------------------------------------|


************************************

| /   slide up
| \   slide down
| h   hammer-on
| p   pull-off
| ~   vibrato
| +   harmonic
| x   Mute note
| b   Bend
| pb  Pre-bend
| br  Bend release
| pbr Pre-bend release
| brb Bend release bend

************************************
Tap to rate this tab
# A B C D E F G H I J K L M N O P Q R S T U V W X Y Z