Guitaretab - guitar tabs
Song name
# A B C D E F G H I J K L M N O P Q R S T U V W X Y Z

Offspring - Vultures tab

Song:Vultures
Artist:The Offspring
Album:Conspiracy of One(Track ?)
Guitarists:Dexter Holland
           Noodles
Tabber:tjm14
Address:oh_mr_sexy_boy@hotmail.com

INTRO/VERSE 1
|--------------------------------|--------------------------------|
|--------------------------------|--------------------------------|
|--------------------------------|--------------------------------|
|----2-------2-----2-------------|----2-------2-----2-------------|
|0-----0-3-----3-2---2-------2---|0-----0-3-----3-2---2-------2---|
|----------------------0---3---3-|----------------------0---3---3-|
 1 + 2 + 3 + 4 + 1 + 2 + 3 + 4 +  1 + 2 + 3 + 4 + 1 + 2 + 3 + 4 +

|--------------------------------|--------------------------------|
|--------------------------------|--------------------------------|
|--------------------------------|--------------------------------|
|----2-------2-----2-------------|----2-------2-----2-------------|
|0-----0-3-----3-2---2-------2---|0-----0-3-----3-2---2-------2---|
|----------------------0---3---3-|----------------------0---3---3-|
 1 + 2 + 3 + 4 + 1 + 2 + 3 + 4 +  1 + 2 + 3 + 4 + 1 + 2 + 3 + 4 +

|--------------------------------|--------------------------------|
|--------------------------------|--------------------------------|
|--------------------------------|--------------------------------|
|----2-------2-----2-------------|----2-------2-----2-------------|
|0-----0-3-----3-2---2-------2---|0-----0-3-----3-2---2-------2---|
|----------------------0---3---3-|----------------------0---3---3-|
 1 + 2 + 3 + 4 + 1 + 2 + 3 + 4 +  1 + 2 + 3 + 4 + 1 + 2 + 3 + 4 +

|--------------------------------|--------------------------------|
|--------------------------------|--------------------------------|
|--------------------------------|--------------------------------|
|----2-------2-----2-------------|----2-------2-----2-------------|
|0-----0-3-----3-2---2-------2---|0-----0-3-----3-2---2-------2---|
|----------------------0---3---3-|----------------------0---3---3-|
 1 + 2 + 3 + 4 + 1 + 2 + 3 + 4 +  1 + 2 + 3 + 4 + 1 + 2 + 3 + 4 +

|--------------------------------|--------------------------------|
|--------------------------------|--------------------------------|
|--------------------------------|--------------------------------|
|----2-------2-----2-------------|----2-------2-----2-------------|
|0-----0-3-----3-2---2-------2---|0-----0-3-----3-2---2-------2---|
|----------------------0---3---3-|----------------------0---3---3-|
 1 + 2 + 3 + 4 + 1 + 2 + 3 + 4 +  1 + 2 + 3 + 4 + 1 + 2 + 3 + 4 +

|--------------------------------|--------------------------------|
|--------------------------------|--------------------------------|
|--------------------------------|--------------------------------|
|----2-------2-----2-------------|----2-------2-----2-------------|
|0-----0-3-----3-2---2-------2---|0-----0-3-----3-2---2-------2---|
|----------------------0---3---3-|----------------------0---3---3-|
 1 + 2 + 3 + 4 + 1 + 2 + 3 + 4 +  1 + 2 + 3 + 4 + 1 + 2 + 3 + 4 +


PRECHORUS
|--------------------------------|--------------------------------|
|--------------------------------|--------------------------------|
|7---7-710--1010-----------------|7---7-710--1010-----------------|
|7---5-5-8---8-8-7---710--101010-|7---5-5-8---8-8-7---710--101010-|
|5---5-5-8---8-8-7---7-8---8-8-8-|5---5-5-8---8-8-7---7-8---8-8-8-|
|----------------5---5-8---8-8-8-|----------------5---5-8---8-8-8-|
 1 + 2 + 3 + 4 + 1 + 2 + 3 + 4 +  1 + 2 + 3 + 4 + 1 + 2 + 3 + 4 +

|--------------------------------|--------------------------------|
|7---7-710--1010-----------------|--------------------------------|
|7---7-710--1010-----------------|9-9-9-9-9-9-9-9-9-9-9-9-9-9-9-9-|
|7---5-5-8---8-8-7---710--101010-|9-9-9-9-9-9-9-9-9-9-9-9-9-9-9-9-|
|5---5-5-8---8-8-7---7-8---8-8-8-|7-7-7-7-7-7-7-7-7-7-7-7-7-7-7-7-|
|----------------5---5-8---8-8-8-|--------------------------------|
 1 + 2 + 3 + 4 + 1 + 2 + 3 + 4 +


CHORUS
|--------------------------------|--------------------------------|
|--------------------------------|--------------------------------|
|--------5-5-x-5-----------------|--------5-5-x-5-----------------|
|7-7-x-7-5-5-x-5-2-2---2---2~~~--|7-7-x-7-5-5-x-5-2-2---2---2~~~--|
|7-7-x-7-3-3-x-3-2-2---2---2~~~--|7-7-x-7-3-3-x-3-2-2---2---2~~~--|
|5-5-x-5---------0-0---0---0~~~--|5-5-x-5---------0-0---0---0~~~--|

|--------------------------------|--------------------------------|
|--------------------------------|--------------------------------|
|--------5-5-x-5-----------------|7-7-7-7-7-7-7-7-9-9-9-9-9-9-9-9-|
|7-7-x-7-5-5-x-5-2-2---2---2~~~--|7-7-7-7-7-7-7-7-9-9-9-9-9-9-9-9-|
|7-7-x-7-3-3-x-3-2-2---2---2~~~--|5-5-5-5-5-5-5-5-7-7-7-7-7-7-7-7-|
|5-5-x-5---------0-0---0---0~~~--|--------------------------------|


VERSE 2
|--------------------------------|--------------------------------|
|--------------------------------|--------------------------------|
|--------------------------------|--------------------------------|
|----2-------2-----2-------------|----2-------2-----2-------------|
|0-----0-3-----3-2---2-------2---|0-----0-3-----3-2---2-------2---|
|----------------------0---3---3-|----------------------0---3---3-|
 1 + 2 + 3 + 4 + 1 + 2 + 3 + 4 +  1 + 2 + 3 + 4 + 1 + 2 + 3 + 4 +

|--------------------------------|--------------------------------|
|--------------------------------|--------------------------------|
|--------------------------------|--------------------------------|
|----2-------2-----2-------------|----2-------2-----2-------------|
|0-----0-3-----3-2---2-------2---|0-----0-3-----3-2---2-------2---|
|----------------------0---3---3-|----------------------0---3---3-|
 1 + 2 + 3 + 4 + 1 + 2 + 3 + 4 +  1 + 2 + 3 + 4 + 1 + 2 + 3 + 4 +

|--------------------------------|--------------------------------|
|--------------------------------|--------------------------------|
|--------------------------------|--------------------------------|
|----2-------2-----2-------------|----2-------2-----2-------------|
|0-----0-3-----3-2---2-------2---|0-----0-3-----3-2---2-------2---|
|----------------------0---3---3-|----------------------0---3---3-|
 1 + 2 + 3 + 4 + 1 + 2 + 3 + 4 +  1 + 2 + 3 + 4 + 1 + 2 + 3 + 4 +

[ Tab from: http://www.guitaretab.com/o/offspring/22539.html ]
PRECHORUS
|--------------------------------|--------------------------------|
|--------------------------------|--------------------------------|
|7---7-710--1010-----------------|7---7-710--1010-----------------|
|7---5-5-8---8-8-7---710--101010-|7---5-5-8---8-8-7---710--101010-|
|5---5-5-8---8-8-7---7-8---8-8-8-|5---5-5-8---8-8-7---7-8---8-8-8-|
|----------------5---5-8---8-8-8-|----------------5---5-8---8-8-8-|
 1 + 2 + 3 + 4 + 1 + 2 + 3 + 4 +  1 + 2 + 3 + 4 + 1 + 2 + 3 + 4 +

|--------------------------------|--------------------------------|
|7---7-710--1010-----------------|--------------------------------|
|7---7-710--1010-----------------|9-9-9-9-9-9-9-9-9-9-9-9-9-9-9-9-|
|7---5-5-8---8-8-7---710--101010-|9-9-9-9-9-9-9-9-9-9-9-9-9-9-9-9-|
|5---5-5-8---8-8-7---7-8---8-8-8-|7-7-7-7-7-7-7-7-7-7-7-7-7-7-7-7-|
|----------------5---5-8---8-8-8-|--------------------------------|
 1 + 2 + 3 + 4 + 1 + 2 + 3 + 4 +  1 + 2 + 3 + 4 + 1 + 2 + 3 + 4 +


CHORUS
|--------------------------------|--------------------------------|
|--------------------------------|--------------------------------|
|--------5-5-x-5-----------------|--------5-5-x-5-----------------|
|7-7-x-7-5-5-x-5-2-2---2---2~~~--|7-7-x-7-5-5-x-5-2-2---2---2~~~--|
|7-7-x-7-3-3-x-3-2-2---2---2~~~--|7-7-x-7-3-3-x-3-2-2---2---2~~~--|
|5-5-x-5---------0-0---0---0~~~--|5-5-x-5---------0-0---0---0~~~--|
 1 + 2 + 3 + 4 + 1 + 2 + 3 + 4 +  1 + 2 + 3 + 4 + 1 + 2 + 3 + 4 +
|--------------------------------|--------------------------------|
|--------------------------------|--------------------------------|
|--------5-5-x-5-----------------|7-7-7-7-7-7-7-7-9-9-9-9-9-9-9-9-|
|7-7-x-7-5-5-x-5-2-2---2---2~~~--|7-7-7-7-7-7-7-7-9-9-9-9-9-9-9-9-|
|7-7-x-7-3-3-x-3-2-2---2---2~~~--|5-5-5-5-5-5-5-5-7-7-7-7-7-7-7-7-|
|5-5-x-5---------0-0---0---0~~~--|--------------------------------|
 1 + 2 + 3 + 4 + 1 + 2 + 3 + 4 +  1 + 2 + 3 + 4 + 1 + 2 + 3 + 4 +
|--------------------------------|--------------------------------|
|--------------------------------|--------------------------------|
|--------5-5-x-5-----------------|--------5-5-x-5-----------------|
|7-7-x-7-5-5-x-5-2-2---2---2~~~--|7-7-x-7-5-5-x-5-2-2---2---2~~~--|
|7-7-x-7-3-3-x-3-2-2---2---2~~~--|7-7-x-7-3-3-x-3-2-2---2---2~~~--|
|5-5-x-5---------0-0---0---0~~~--|5-5-x-5---------0-0---0---0~~~--|
 1 + 2 + 3 + 4 + 1 + 2 + 3 + 4 +  1 + 2 + 3 + 4 + 1 + 2 + 3 + 4 +
|--------------------------------|--------------------------------|
|--------------------------------|--------------------------------|
|--------5-5-x-5-----------------|7-7-7-7-7-7-7-7-9-9-9-9-9-9-9-9-|
|7-7-x-7-5-5-x-5-2-2---2---2~~~--|7-7-7-7-7-7-7-7-9-9-9-9-9-9-9-9-|
|7-7-x-7-3-3-x-3-2-2---2---2~~~--|5-5-5-5-5-5-5-5-7-7-7-7-7-7-7-7-|
|5-5-x-5---------0-0---0---0~~~--|--------------------------------|
 1 + 2 + 3 + 4 + 1 + 2 + 3 + 4 +  1 + 2 + 3 + 4 + 1 + 2 + 3 + 4 +


SOLO
|--------------------------------|--------------------------------|
|--------------------------------|--------------------------------|
|2------/5-----5-4-5-4-----------|2------/5-----5\4/7-5-4---5-4---|
|----------------------5---2-----|------------------------------5-|
|--------------------------------|--------------------------------|
|--------------------------------|--------------------------------|
 1 + 2 + 3 + 4 + 1 + 2 + 3 + 4 +  1 + 2 + 3 + 4 + 1 + 2 + 3 + 4 +

|--------------------------------|--------------------------------|
|--------------------------------|--------------------------------|
|2------/5-----5-4-5-4-----------|2------/5-----5\4/7-5/9---7-5-4-|
|----------------------5---2-----|--------------------------------|
|--------------------------------|--------------------------------|
|--------------------------------|--------------------------------|
 1 + 2 + 3 + 4 + 1 + 2 + 3 + 4 +  1 + 2 + 3 + 4 + 1 + 2 + 3 + 4 +


PRECHORUS
|--------------------------------|--------------------------------|
|--------------------------------|--------------------------------|
|7---7-710--1010-----------------|7---7-710--1010-----------------|
|7---5-5-8---8-8-7---710--101010-|7---5-5-8---8-8-7---710--101010-|
|5---5-5-8---8-8-7---7-8---8-8-8-|5---5-5-8---8-8-7---7-8---8-8-8-|
|----------------5---5-8---8-8-8-|----------------5---5-8---8-8-8-|
 1 + 2 + 3 + 4 + 1 + 2 + 3 + 4 +  1 + 2 + 3 + 4 + 1 + 2 + 3 + 4 +

|--------------------------------|--------------------------------|
|7---7-710--1010-----------------|--------------------------------|
|7---7-710--1010-----------------|9-9-9-9-9-9-9-9-9-9-9-9-9-9-9-9-|
|7---5-5-8---8-8-7---710--101010-|9-9-9-9-9-9-9-9-9-9-9-9-9-9-9-9-|
|5---5-5-8---8-8-7---7-8---8-8-8-|7-7-7-7-7-7-7-7-7-7-7-7-7-7-7-7-|
|----------------5---5-8---8-8-8-|--------------------------------|
  1 + 2 + 3 + 4 + 1 + 2 + 3 + 4 +  1 + 2 + 3 + 4 + 1 + 2 + 3 + 4 +


CHORUS
|--------------------------------|--------------------------------|
|--------------------------------|--------------------------------|
|--------5-5-x-5-----------------|--------5-5-x-5-----------------|
|7-7-x-7-5-5-x-5-2-2---2---2~~~--|7-7-x-7-5-5-x-5-2-2---2---2~~~--|
|7-7-x-7-3-3-x-3-2-2---2---2~~~--|7-7-x-7-3-3-x-3-2-2---2---2~~~--|
|5-5-x-5---------0-0---0---0~~~--|5-5-x-5---------0-0---0---0~~~--|
 1 + 2 + 3 + 4 + 1 + 2 + 3 + 4 +  1 + 2 + 3 + 4 + 1 + 2 + 3 + 4 +
|--------------------------------|--------------------------------|
|--------------------------------|--------------------------------|
|--------5-5-x-5-----------------|7-7-7-7-7-7-7-7-9-9-9-9-9-9-9-9-|
|7-7-x-7-5-5-x-5-2-2---2---2~~~--|7-7-7-7-7-7-7-7-9-9-9-9-9-9-9-9-|
|7-7-x-7-3-3-x-3-2-2---2---2~~~--|5-5-5-5-5-5-5-5-7-7-7-7-7-7-7-7-|
|5-5-x-5---------0-0---0---0~~~--|--------------------------------|
 1 + 2 + 3 + 4 + 1 + 2 + 3 + 4 +  1 + 2 + 3 + 4 + 1 + 2 + 3 + 4 +
|--------------------------------|--------------------------------|
|--------------------------------|--------------------------------|
|--------5-5-x-5-----------------|--------5-5-x-5-----------------|
|7-7-x-7-5-5-x-5-2-2---2---2~~~--|7-7-x-7-5-5-x-5-2-2---2---2~~~--|
|7-7-x-7-3-3-x-3-2-2---2---2~~~--|7-7-x-7-3-3-x-3-2-2---2---2~~~--|
|5-5-x-5---------0-0---0---0~~~--|5-5-x-5---------0-0---0---0~~~--|
 1 + 2 + 3 + 4 + 1 + 2 + 3 + 4 +  1 + 2 + 3 + 4 + 1 + 2 + 3 + 4 +
|--------------------------------|--------------------------------|
|--------------------------------|--------------------------------|
|--------5-5-x-5-----------------|7-7-7-7-7-7-7-7-9-9-9-9-9-9-9-9-|
|7-7-x-7-5-5-x-5-2-2---2---2~~~--|7-7-7-7-7-7-7-7-9-9-9-9-9-9-9-9-|
|7-7-x-7-3-3-x-3-2-2---2---2~~~--|5-5-5-5-5-5-5-5-7-7-7-7-7-7-7-7-|
|5-5-x-5---------0-0---0---0~~~--|--------------------------------|
 1 + 2 + 3 + 4 + 1 + 2 + 3 + 4 +  1 + 2 + 3 + 4 + 1 + 2 + 3 + 4 +


OUTRO
|--------------------------------|
|--------------------------------|
|--------------------------------|
|7~~~~~~~------------------------|
|7~~~~~~~------------------------|
|5~~~~~~~------------------------|
 1 + 2 + 3 + 4 + 1 + 2 + 3 + 4 + 
Related for Vultures tab
Advertisement will be closed in 10 seconds