Song name
# A B C D E F G H I J K L M N O P Q R S T U V W X Y Z

Offspring - Feelings tab

Song: Feelings
Artist: The Offspring
Album: Americana
Tabbed By: Neno
www.ultimate-guitar.com

This is a hard song. If you're good you can do it. But if you're not good, why are you 
to play Offspring?

legend:
* bend half step
^ bend one whole step
\slide down
/slide up
~ vibrato

Intro

e-|-----------------------------------------------------------------|
B-|-----------------------------------------------------------------|
G-|--5----------5----5--5--5--5----------5----5--5--5--5----------5-|
D-|--7--7-7-7-7-7----7--7--7--6--6-6-6-6-6----6--6--6--5--5-5-5-5-5-|
A-|-----------------------------------------------------------------|
E-|-----------------------------------------------------------------|

e-------------------------------------------------------------|
B-------------------------------------------------------------|
G---5--5--5--7----------7----7--7--7--7----------7----7--7--7-|
D---5--5--5--4--4-4-4-4-4----4--4--4--3--3-3-3-3-3----3--3--3-|
A-------------------------------------------------------------|
E-------------------------------------------------------------|

e--------------------------------------------------------------------|
B--------------------------------------------------------------------|
G---7----------7----7--7--7---------------------------9---9----9---9-|
D---5--5-5-5-5-5----5--5--5---7--7---7----7--7--7-----9---9----9---9-|
A-----------------------------7--7---7----7--7--7-----7---7----7---7-|
E-----------------------------5--5---5----5--5--5--0-----------------|

e---------------------------------------------------------------|
B---------------------------------------------------------------|
G------9---9----9---9-----9---9----9---9--9--9--9--9--9--9--9\--|
D------9---9----9---9-----9---9----9---9--9--9--9--9--9--9--9\--|
A------7---7----7---7-----7---7----7---7--7--7--7--7--7--7--7\--|
E---0------------------0----------------------------------------|

Verse

e-||---------------------------------------------------|
B-||---------------------------------------------------|
G-||---------------------------------------------------|
D-||---------------------------------------------------|
A-||--3----------3----3--3--3--3----------3----3--3--3-|
E-||--5--5-5-5-5-5----5--5--5--4--4-4-4-4-4----4--4--4-|
      Feel - ings          ...             Nothing...

e----------------------------------------------------|
B----------------------------------------------------|
G----------------------------------------------------|
D----------------------------------------------------|
A---3----------3----3--3--3--5----------5----5--5--5-|
E---3--3-3-3-3-3----3--3--3--2--2-2-2-2-2----2--2--2-|
    feel - ings

e----------------------------------------------------|
B----------------------------------------------------|
G----------------------------------------------------|
D----------------------------------------------------|
A---5----------5----5--5--5--5----------5----5--5----|
E---1--1-1-1-1-1----1--1--1--3--3-3-3-3-3----3--3/5--|
       get     my
e---------------------------------------------|-|
B---------------------------------------------|-|
G-----------------------------9---9----9----9-|-|
D---7--7----7-----7--7--7-----9---9----9----9-|-|
A---7--7----7-----7--7--7-----7---7----7----7-|-|
E---5--5----5-----5--5--5--0------------------|-|

Chorus

e-----------------------------------------------------------------------|
B-----------------------------------------------------------------------|
G-------------------------------------------------5--5----5--5--5----5--|
D---3--3----3--3--3----3--3--3-----3--3--3-----3--5--5----5--5--5----5--|
A---3--3----3--3--3----3--3--3-----3--3--3-----3--3--3----3--3--3----3--|
E---1--1----1--1--1----1--1--1-----1--1--1-----1------------------------|
    Feel    -   ings            oh     oh-------------------------------|     feel   -  ings

e---------------------------------------------------------------------|
B---------------------------------------------------------------------|
G---5--5----5--5--5-----5--7--7----7--7--7----7--9--9-----9-----9--9\-|
D---5--5----5--5--5-----5--7--7----7--7--7----7--9--9-----9-----9--9\-|
A---3--3----3--3--3-----3--5--5----5--5--5----5--7--7-----7-----7--7\-|
E---------------------------------------------------------------------|
            oh  oh---      feel  -  ings

e------------------------------------------------------------------|
B------------------------------------------------------------------|
G------------------------------------------------------------------|
D---7--7----7--7--7----7--7--7--7--7--7--7--7\3--3----3--3--3----3-|
A---7--7----7--7--7----7--7--7--7--7--7--7--7\3--3----3--3--3----3-|
E---5--5----5--5--5----5--5--5--5--5--5--5--5\1--1----1--1--1----1-|
                                              Feel  -  ings

e--------------------------------------------------------------------|
B--------------------------------------------------------------------|
G-------------------------5--5----5--5--5----5--5--5----5--5--5----5-|
D---3--3----3--3--3----3--5--5----5--5--5----5--5--5----5--5--5----5-|
A---3--3----3--3--3----3--3--3----3--3--3----3--3--3----3--3--3----3-|
E---1--1----1--1--1----1---------------------------------------------|
         oh  oh---        feel  -  ings

Coda 1

e-----------------------------------------------0--0----0--0--0---0---0-|
B-----------------------------------------------0--0----0--0--0---0---0-|
G---7--7----7--7--7----7--4--4----4--4--4----4--1--1----1--1--2---2---2-|
D---7--7----7--7--7----7--4--4----4--4--4----4--2--2----2--2--2---2---2-|
A---5--5----5--5--5----5--2--2----2--2--2----2--2--2----2--2--2---2---2-|
E-----------------------------------------------0--0----0--0--0---0---0-|
                                  of hate on my        mind_________________

e---0---0---0---0--0----0-|
B---0---0---0---0--0----0-|
G---2---2---2---1--1----1-|
D---2---2---2---2--2----2-|
A---2---2---2---2--2----2-|
E---0---0---0---0--0----0-|

Coda 2

e------------------------------------------|
B------------------------------------------|
G---7--7---7--7--7---7--4--4---4--4--4---4-|
D---7--7---7--7--7---7--4--4---4--4--4---4-|
A---5--5---5--5--5---5--2--2---2--2--2---2-|
E------------------------------------------|

e------------------------------------------------------------|
B--------------------------------9---9------9-----10--10--10-|
G---4---4------4---4---4-----4---9---9------9------9---9---9-|
D---4---4------4---4---4-----4---9---9------9------9---9---9-|
A---2---2------2---2---2-----2---7---7------7------7---7---7-|
E------------------------------------------------------------|
     You're    note    ver - y            nice_______________
e-----------------------------|
B--10-10-10-10-10-10-10-10--9-|
G---9--9--9--9--9--9--9--9--9-|
D---9--9--9--9--9--9--9--9--9-|
A---7--7--7--7--7--7--7--7--7-|
E-----------------------------|
____
Guitar Solo
(Check ledgend up in the tab to play better)

    Am                Ab                C5/G          D/F#    F6
e---------------------------------------------------------------------|
B---5---5-5---5----5--5---5-5---5----5--5---5-8--5--------------------|
G---7^----7^----7^----7^----7^----7^----7^---------5------------------|
D-----------------------------------------------------7~---(7)\---5/7-|
A-------------------------------------------------------------/7------|
E---------------------------------------------------------------------|

             G5                    A5          E5
e---------------------------------------------------------0--|
B---5-------------------17---17----------------5--5---5------|
G---5-------------------17---17-17-------------7^-7^--7^-----|
D------7-7-5------17/19------------19~---(19)\---------------|
A-------------/19--------------------------------------------|
E------------------------------------------------------------|

                             Ab                       C5/G
e------------------------------------------------------------------------|
B---17--17-17---17-----17-17---17-17---17------17--17---17-20^--20-17----|
G---19^----19^ ----19^----19^-----19^-----19^------19^----------------17-|
D------------------------------------------------------------------------|
A------------------------------------------------------------------------|
E------------------------------------------------------------------------|

    D/F#            F6                   G5                 A5
e----------------------------------------20^---20---17-17-17--(17)~-|
B-----------------------------17---17-17------------17--------------|
G-------------------------x-x-17---17-17----------------------------|
D---19~----17/19----/19---------------------------------------------|
A---------------17\----19-------------------------------------------|
E-------------------------------------------------------------------|

  E5             E  E5            E  E5
e---------------------------------------------------------------------------|
B-5--5---5--5----10--10---10---0--13--13---13---0------17-17-17---17--------|
G-7^-7^--7^-7^---12^-12^--12^-----15^-15^--15^-----19^-------19^--19^--(19--|
D---------------------------------------------------------------------------|
A---------------------------------------------------------------------------|
E---------------------------------------------------------------------------|

Coda 3

e--------------------------------------------------------------------|
B--------------------------------------------------------------------|
G---7---7--7--7--7--7--7\9---9--9--9--9--9---9-----------------------|
D---7---7--7--7--7--7--7\9---9--9--9--9--9---9--7---7--7--7--7--7--7-|
A---5---5--5--5--5--5--5\7---7--7--7--7--7---7--7---7--7--7--7--7--7-|
E-----------------------------------------------5---5--5--5--5--5--5-|
    feel  -  ings            get out   of my        life

e------------------------------------------------------|
B------------------------------------------------------|
G------------------------------------------------------|
D---7--7--7--7--7--7--7--7\ ->goes directly to "Outro--|
A---7--7--7--7--7--7--7--7\----------------------------|
E---5--5--5--5--5--5--5--5\----------------------------|

Outro

e-------------------------------------------------------------|
B-------------------------------------------------------------|
G-----------------------------x---5-----5-----(5)-----------5-|
D---3-----3----------------3--x---5-----5-----(5)-----------5-|
A---3-----3----------------3--x---3-----3-----(3)-----------3-|
E---1-----1----------------1----------------------------------|
   Feel  -  ings   oh oh___       feel - ings     oh oh...

e---------------------------------------------|
B---------------------------------------------|
G---7--------------------9--------------------|
D---7---7--7--7--7--7--7/9---9--9--9--9--9--9-|
A---5---5--5--5--5--5--5/7---7--7--7--7--7--7-|
E---------------------------------------------|

Final Solo
(look ledgend above)

e------------------------------------------------------------------------|
B------17-20/17-------17-20/17------17-20/17------17-20/17------17-20/17-|
G-19*-----------19*-----------19*-----------19*-----------19*------------|
D------------------------------------------------------------------------|
A------------------------------------------------------------------------|
E------------------------------------------------------------------------|

e------------------------------------------------------------------------|
B------17-20/17-------17-20/17------17-20/17------17-20/17------17-20/17-|
G-19*-----------19*-----------19*-----------19*-----------19*------------|
D------------------------------------------------------------------------|
A------------------------------------------------------------------------|
E------------------------------------------------------------------------|

e-----------------------------|
B-----------------------------|
G---19/17---------------------|
D------------------19---(19)\-|
A-----------------------------|
E-----------------------------|

Order:

Intro   x1
Verse   x2
Chorus  x1
Coda 1  x1
Verse   x2
Chorus  x1
Coda 2  x1
Solo    x1
Chorus  x1
Coda 3  x1
Outro   x1
Final Solo.
Tap to rate this tab
 
# A B C D E F G H I J K L M N O P Q R S T U V W X Y Z