Song name
# A B C D E F G H I J K L M N O P Q R S T U V W X Y Z

Offspring - Pay The Man tab

Offspring - Pay the Man (solo)
This is a really cool, and easy solo. Use a lot of overdrive/some compression, its all 
based on one scale.


e|-------------------------------------------------------------|
B|-15-13-12-10-9-10-12-10-9------15-13-12-10-9-10-12-10-9------|
G|--------------------------10-9--------------------------10-9-|
D|-------------------------------------------------------------|
A|-------------------------------------------------------------|
E|-------------------------------------------------------------|

e|-------------------------------------------------------------------------|
B|------9-9-9-9-9-9-9-10-12-12-12-10-9------9-9-9-9-9-9-9-10-12-12-12-10-9-|
G|-9-10--------------------------------9-10--------------------------------|
D|-------------------------------------------------------------------------|
A|-------------------------------------------------------------------------|
E|-------------------------------------------------------------------------|
(repeat these 2 bars again)
e|-------------------------------------------------------------|
B|-9-10-12-12-12-12-12-13-15-17-18-17-15-17-13-12-13-12-9-10-9-|
G|-------------------------------------------------------------|
D|-------------------------------------------------------------|
A|-------------------------------------------------------------|
E|-------------------------------------------------------------|

e|-------------------------------------------------------------------------|
B|-9-10-12-12-12-12-12-13-15-17-18-17-15-17-13-12-13-12-17-17-17-17-17-17--|
G|-------------------------------------------------------------------------|
D|-------------------------------------------------------------------------|
A|-------------------------------------------------------------------------|
E|-------------------------------------------------------------------------|

e|--------------------------------------------------------|
B|--17-17-17-17-17-17-17-17-17-18-21-21-21-21-18-17^18^17-|
G|--------------------------------------------------------|
D|--------------------------------------------------------|
A|--------------------------------------------------------|
E|--------------------------------------------------------|

e|-------------------------------------|
B|--17-18-21-21-21-21-21--18-17^18^17--|
G|-------------------------------------|
D|-------------------------------------|
A|-------------------------------------|
E|-------------------------------------|
Tap to rate this tab
# A B C D E F G H I J K L M N O P Q R S T U V W X Y Z