Song name
# A B C D E F G H I J K L M N O P Q R S T U V W X Y Z

Offspring - Burn It Up tab

-----------------------------------------------------------------------------
			     Burn It Up - The Offspring
-----------------------------------------------------------------------------
Tabbed by: Jason Flieger
Email: jjflieger@yahoo.com

Tuning: Standard (EADGBe)

This is a really fun song to play, just getting those slides perfect on the main 
riff could take some time.

| / slide up
| \ slide down

Intro/Verse
e|------------------------------------------------------------------|
B|------------------------------------------------------------------|
G|-9--9--10\9--7--9--10\9--7--9-------------------------------------|
D|-9--9--10\9--7--9--10\9--7--9-------------------------------------|
A|-7--7--8-\7--5--7--8-\7--5--7-------------------------------------|
E|------------------------------------------------------------------|

e|------------------------------------------------------------------|
B|------------------------------------------------------------------|
G|-9--9--10\9--7--9--10\9--7--9-------------------------------------|
D|-9--9--10\9--7--9--10\9--7--9-------------------------------------|
A|-7--7--8-\7--5--7--8-\7--5--7-------------------------------------|
E|------------------------------------------------------------------|

e|------------------------------------------------------------------|
B|------------------------------------------------------------------|
G|-9--9--10\9--7--9--10\9--7--9-------------------------------------|
D|-7--7--8-\7--5--7--8-\7--5--7-------------------------------------|
A|------------------------------------------------------------------|
E|------------------------------------------------------------------|

e|------------------------------------------------------------------|
B|------------------------------------------------------------------|
G|-9--9--10\9--7--9--10\9--7--9-------------------------------------|
D|-9--9--10\9--7--9--10\9--7--9-------------------------------------|
A|-7--7--8-\7--5--7--8-\7--5--7-------------------------------------|
E|------------------------------------------------------------------|

Pre-Chorus
P.M.  |=======|      |=======|
e|------------------------------------------------------------------| x3
B|------------------------------------------------------------------|
G|--9--9-9-9-9--8--7--7-7-7-7--8------------------------------------|
D|--9--9-9-9-9--8--7--7-7-7-7--8------------------------------------|
A|--7--7-7-7-7--6--5--5-5-5-5--6------------------------------------|
E|------------------------------------------------------------------|

e|------------------------------------------------------------------| x1
B|------------------------------------------------------------------|
G|--9--9-9-9-9-9-9-9-9-9-9-9-9-9-9----------------------------------|
D|--9--9-9-9-9-9-9-9-9-9-9-9-9-9-9----------------------------------|
A|--7--7-7-7-7-7-7-7-7-7-7-7-7-7-7----------------------------------|
E|------------------------------------------------------------------|

Chorus
e|--------------------------------------------------------------------------|
B|--------------------------------------------------------------------------|
G|--------------------------------------------------------------------------|
D|--7--7-7-7-7-7-7--10--10-10-10-10-10-10--2--2-2-2-2-2-2-2-2-2-2-2-2-2-2---|
A|--7--7-7-7-7-7-7--8---8--8--8--8--8--8---2--2-2-2-2-2-2-2-2-2-2-2-2-2-2---|
E|--5--5-5-5-5-5-5--8---8--8--8--8--8--8---0--0-0-0-0-0-0-0-0-0-0-0-0-0-0---|

Bridge
e|--------------------------------------------------------------------------|
B|--------------------------------------------------------------------------|
G|--9--9--9--9-9--9-9--7/9--9--9--9--9-9--7-7--7/9--------------------------|
D|--9--9--9--9-9--9-9--5/7--7--7--7--7-7--7-7--7/9--------------------------|
A|--7--7--7--7-7--7-7---------------------5-5--5/7--------------------------|
E|--------------------------------------------------------------------------|
Tap to rate this tab
 
# A B C D E F G H I J K L M N O P Q R S T U V W X Y Z