Guitaretab - guitar tabs
Song name
# A B C D E F G H I J K L M N O P Q R S T U V W X Y Z

Offspring - A Lot Like Me tab

Intro (Piano then guitar comes in after about 15 seconds)
E|-----------------------------------------------------------------|
B|-7-7-7-7-7-7-7-7-10-10-10-10-10-10-10-10-10-10-10-10-10-10-10-10-|
G|-4-4-4-4-4-4-4-4-7--7--7--7--7--7--7--7--6--6--6--6--6--6--6--6--|
D|-----------------------------------------------------------------|
A|-----------------------------------------------------------------|
E|-----------------------------------------------------------------|

                   2x
E|-------------|
B|-5-5-5-5/7-7-|
G|-4-4-4-4/6-6-|
D|-------------|
A|-------------|
E|-------------|

Verse 1 (guitar is silent for first half then PM)
E|-----------------------------------------------------------------|
B|-----------------------------------------------------------------|
G|-----------------------------------------------------------------|
D|-4-4-4-4-4-4-4-4-7-7-7-7-7-7-7-7-2-2-2-2-2-2-2-2-----------------|
A|-2-2-2-2-2-2-2-2-5-5-5-5-5-5-5-5-0-0-0-0-0-0-0-0-2-2-2-2-2-2-2-2-|
E|-------------------------------------------------0-0-0-0-0-0-0-0-|

E|-------------------------------------------------------------------|
B|-------------------------------------------------------------------|
G|-------------------------------------------------------------------|
D|-4-4-4-4-4-4-4-4-7-7-7-7-7-7-7-7-11-11-11-11-11-11-11-11-9-9-9-9-9-|
A|-2-2-2-2-2-2-2-2-5-5-5-5-5-5-5-5-9--9--9--9--9--9--9--9--7-7-7-7-7-|
E|-------------------------------------------------------------------|

Chorus                                                             2x

E|---------------------------------------------------------------|
B|---------------------------------------------------------------|
G|---------------------------------------------------------------|
D|-4-4-4-4-4-4-4-4-7-7-7-7-7-7-7-7-2-2-2-2-2-2-2-2-9-9-9-9-11-11-|
A|-2-2-2-2-2-2-2-2-5-5-5-5-5-5-5-5-0-0-0-0-0-0-0-0-7-7-7-7-9--9--|
E|---------------------------------------------------------------|

Verse 2 (Piano and guitar begin by alternating, only guitar is shown, the rest of the 
is played just like verse 1)

E|-----------------------------------------|
B|-----------7-7-7-7-7-----------7-7-7-7-7-|
G|-----------4-4-4-4-4-----------4-4-4-4-4-|
D|-7-7-7-7-7-----------7-7-7-7-7-----------|
A|-5-5-5-5-5-----------5-5-5-5-5-----------|
E|-----------------------------------------|

Play Chorus again

Bridge

E|-7-7-7-7-7-7-7-7-10-10-10-10-10-10-10-10-5-5-5-5-5-5-5-5-|
B|-7-7-7-7-7-7-7-7-10-10-10-10-10-10-10-10-5-5-5-5-5-5-5-5-|
G|---------------------------------------------------------|
D|---------------------------------------------------------|
A|---------------------------------------------------------|
E|---------------------------------------------------------|
[ Tab from: http://www.guitaretab.com/o/offspring/245083.html ]
 (First time through)       (Second Time Through)
E|-12-12-12-12-12-12-12-12-|---------------------------------|
B|-12-12-12-12-12-12-12-12-|---------------------------------|
G|-------------------------|---------------------------------|
D|-------------------------|---------------------------------|
A|-------------------------|-5-5-5-5-5-5-5-5-5-5-5-5-7-7-7-7-|
E|-------------------------|-3-3-3-3-3-3-3-3-3-3-3-3-5-5-5-5-|

Solo (I haven't been able to figure this out yet)

Pre-Chorus (bass and drums play then the guitar plays)
E|--------------------------------------------|
B|--------------------------------------------|
G|--------------------------------------------|
D|-4-4-4-4-4-4-4-4-7-7-7-7-7-7-7-7-7----------|
A|-2-2-2-2-2-2-2-2-5-5-5-5-5-5-5-5-5-5(x11)-7-|
E|-----------------------------------3(x11)-5-|

Chorus

E|-7-7-7-7-7-7-7-7-10-10-10-10-10-10-10-10-5-5-5-5-5-5-5-5-|
B|-7-7-7-7-7-7-7-7-10-10-10-10-10-10-10-10-5-5-5-5-5-5-5-5-|
G|---------------------------------------------------------|
D|---------------------------------------------------------|
A|---------------------------------------------------------|
E|---------------------------------------------------------|

                              2x
E|-12-12-12-12-12-12-12-12-|
B|-12-12-12-12-12-12-12-12-|
G|-------------------------|
D|-------------------------|
A|-------------------------|
E|-------------------------|
                                                                    2x
E|---------------------------------------------------------------|
B|---------------------------------------------------------------|
G|---------------------------------------------------------------|
D|-4-4-4-4-4-4-4-4-7-7-7-7-7-7-7-7-2-2-2-2-2-2-2-2-9-9-9-9-11-11-|
A|-2-2-2-2-2-2-2-2-5-5-5-5-5-5-5-5-0-0-0-0-0-0-0-0-7-7-7-7-9--9--|
E|---------------------------------------------------------------|


E|-7-7-7-7-7-7-7-7-10-10-10-10-10-10-10-10-5-5-5-5-5-5-5-5-|
B|-7-7-7-7-7-7-7-7-10-10-10-10-10-10-10-10-5-5-5-5-5-5-5-5-|
G|---------------------------------------------------------|
D|---------------------------------------------------------|
A|---------------------------------------------------------|
E|---------------------------------------------------------|

E|-12-12-12-12-12-12-12-12-|
B|-12-12-12-12-12-12-12-12-|
G|-------------------------|
D|-------------------------|
A|-------------------------|
E|-------------------------|

E|-7-7-7-7-7-7-7-7-10-10-10-10-10-10-10-10----------------|
B|-7-7-7-7-7-7-7-7-10-10-10-10-10-10-10-10----------------|
G|--------------------------------------------------------|
D|--------------------------------------------------------|
A|-----------------------------------------5(x11)-5-5-5-5-|
E|-----------------------------------------3(x11)-7-7-7-7-|

Outro

E|-----------------------------------------------------------------|
B|-7-7-7-7-7-7-7-7-10-10-10-10-10-10-10-10-10-10-10-10-10-10-10-10-|
G|-4-4-4-4-4-4-4-4-7--7--7--7--7--7--7--7--6--6--6--6--6--6--6--6--|
D|-----------------------------------------------------------------|
A|-----------------------------------------------------------------|
E|-----------------------------------------------------------------|

                 6x (after the fifth time start to gradually play softer)
E|-------------|
B|-5-5-5-5/7-7-|
G|-4-4-4-4/6-6-|
D|-------------|
A|-------------|
E|-------------|
Related for A Lot Like Me tab
A Lot Like Me chords by Offspring