Song name
# A B C D E F G H I J K L M N O P Q R S T U V W X Y Z

Offspring - Come Out Swinging tab

Help us improve GuitareTab! Take a short survey!
The Offspring- Come Out Swinging
 tabbed by danc446,     danc446@yahoo.com

INTRO     each chord once, play twice
|------------------------------------------------|
|------------------------------------------------|
|-9--7--9--7--9--11--12--12--12----------12--11--|
|-9--7--9--7--9--11--12--12--12--12--12--12--11--|
|-7--5--7--5--7---9--10--10--10--12--12--10---9--|
|--------------------------------10--10----------|

PREVERSE   with pm
|---------------------|
|---------------------|
|-9-9-9-9-9-9-9-9-9-9-|
|-9-9-9-9-9-9-9-9-9-9-|
|-7-7-7-7-7-7-7-7-7-7-|
|---------------------|

VERSE 1
Bass Riff

POSTVERSE
|-6x---6x---6x-----------------------6x---6x---6x--------------|
|--------------------------------------------------------------|
|-9----7----9----11---12---11---7----9----7----9-----5-5--7-7--|
|-x----x----x-----x----x----x---x----x----x----x-----x-x--x-x--|
|-7----5----7-----9---10----9---5----7----5----7-----3-3--5-5--|
|--------------------------------------------------------------|

chorus    * = 6x
|--------------------------------------------------------------------|
|--------------------------------------------------------------------|
|-9-7-9---*---------5-5-5-5-5-7-7-7-7--9-7-9---*---------------------|
|-9-7-9-2-5-7-5-7-5-5-5-5-5-5-7-7-7-7--9-7-9-2-5-7-5-7-5-7-5-2-5-2---|
|-7-5-7-2-5-7-5-7-5-3-3-3-3-3-5-5-5-5--7-5-7-2-5-7-5-7-5-7-5-2-5-2---|
|-------0-3-5-3-5-3--------------------------0-3-5-3-5-3-5-3-0-3-0---|

VERSE 2  % = 10x          with alternating pm
|---------------------------------------|
|---------------------------------------|
|-%--%--%--%--%--%------------5-5--7-7--|
|-2--5--7--7--2--5--5-5--7-7--5-5--7-7--|
|-2--5--7--7--2--5--5-5--7-7--3-3--5-5--|
|-0--3--5--5--0--3--3-3--5-5------------|

BRIDGE
|--------------------------------------------|
|-----------------------*--*--*--------------|
|-5::-5::-4::-7::-9::---9--7--9--11-12-11-7--|
|-5::-5::-4::-7::-9::---x--x--x---x--x--x-x--|
|-3::-3::-2::-5::-7::---7--5--7---9-10--9-5--|
|--------------------------------------------|

BRIDGE 2  Play 2x,  first is pm   second is open
|-----------------|
|-*--*--*--*--%-%-|
|-9--5-----7------|
|-9--5--7--7--9-9-|
|-7--3--7--5--9-9-|
|-------5-----7-7-|


Thanks a bunch!
Related for Come Out Swinging tab