Song name
# A B C D E F G H I J K L M N O P Q R S T U V W X Y Z

Offspring - Dirty Magic tab

~The Offspring ~ Dirty Magic~

Sorry for: so long text,that it's kind of messy and that you may have scroll many 
times... :/

-All credits for The Offspring(for makin' the song) and My guitar teacher ('cus he 
figured out how to play this awsome song)-

This is my first time makin' a tab so it might not be so good...^^'
Haha anyway, The lyrics is in the buttom and you might wanna listen to the song one time 
before you play it 'cus it might help ya'! x)

Don't forget to rate and enjoy it! ;)

                      Intro (Optional verse)
E--------------------------------------------------------------|
B--------------------------------------------------------------|
G--------------------------------------------------------------|
D-----------2-----2----------5--------4------------------------| x2
A--0-0--0-0---0-0---0----3-3---3--2-2---2----2--3-2---2--3-2---|
E-------------------------------------------0--0-----0--0------|

When you've played the intro twice you can keep on play it in the verse (six times)if 
you want, OR you can play it like this:

                         (Optional)Verse
E--------------------------------------------------------------|
B--------------------------------------------------------------|
G--------------------------------------------------------------|
D--2-2-2-2-2-2-2-2---5-5-5-5---4-4-4-4-------------------------| x6
A--0-0-0-0-0-0-0-0---3-3-3-3---2-2-2-2--2-2-2-3-2--2-2-2-3-2---|
E---------------------------------------0-0-0-0-0--0-0-0-0-0---|

                            Chorus
E---------------------------------------------------------------|
B---------------------------------------------------------------|
G---------------------------------------------------------------|
D--7/--9-9-9----7/--9-9-9---------------------7-7-7-7-7-7-7-7---| x3
A--5/--7-7-7----5/--7-7-7----5-5-5-5-5-5-5-5--5-5-5-5-5-5-5-5---|
E------------0-----------0---3-3-3-3-3-3-3-3--------------------|

         (Short part between Chorus and Verse 2)
E--------------------------------------------------------------|
B--------------------------------------------------------------|
G--------------------------------------------------------------|
D-----------2-----2----------5--------4------------------------| x2
A--0-0--0-0---0-0---0----3-3---3--2-2---2----2--3-2---2--3-2---|
E-------------------------------------------0--0-----0--0------|

                     (Optional)Verse 2
(you can also(as before)play like you play the intro)
E--------------------------------------------------------------|
B--------------------------------------------------------------|
G--------------------------------------------------------------|
D--2-2-2-2-2-2-2-2---5-5-5-5---4-4-4-4-------------------------| x6
A--0-0-0-0-0-0-0-0---3-3-3-3---2-2-2-2--2-2-2-3-2--2-2-2-3-2---|
E---------------------------------------0-0-0-0-0--0-0-0-0-0---|

                            Chorus
E---------------------------------------------------------------|
B---------------------------------------------------------------|
G---------------------------------------------------------------|
D--7/--9-9-9----7/--9-9-9---------------------7-7-7-7-7-7-7-7---| x3
A--5/--7-7-7----5/--7-7-7----5-5-5-5-5-5-5-5--5-5-5-5-5-5-5-5---|
E------------0-----------0---3-3-3-3-3-3-3-3--------------------|

Then comes the solo...wich i did'nt learn so in backround they play:

E--------------------------------------------------------------|
B--------------------------------------------------------------|
G--------------------------------------------------------------|
D-----------2-----2----------5--------4------------------------| x6
A--0-0--0-0---0-0---0----3-3---3--2-2---2----2--3-2---2--3-2---|
E-------------------------------------------0--0-----0--0------|


Chorus
E---------------------------------------------------------------|
B---------------------------------------------------------------|
G---------------------------------------------------------------|
D--7/--9-9-9----7/--9-9-9---------------------7-7-7-7-7-7-7-7---| x3
A--5/--7-7-7----5/--7-7-7----5-5-5-5-5-5-5-5--5-5-5-5-5-5-5-5---|
E------------0-----------0---3-3-3-3-3-3-3-3--------------------|


Lyrics:

[Verse 1]
In my own simple way, I think she wants me only.
She said:"Come over rigt away".
But she's just not that way...
Her little soul is stolen, see her put on her brand new face.

[Chorus]
Pull the shades,razorblades. You're so tradic.
Hate you so, love you more. I'm so elastic.
Things you say, games you play. Dirty Magic.

[Verse 2]
I should know better then to think I'd reach inside her.
It's all a cloudy kind of daze.
She's not so sweet today. She mocks, I'm no fighter.
It all just seems like such a waste.

[Chorus]

It's oversimplefied, it's oversimplefied, it's oversimplefied!!

[Chorus]
Tap to rate this tab
# A B C D E F G H I J K L M N O P Q R S T U V W X Y Z