Song name
# A B C D E F G H I J K L M N O P Q R S T U V W X Y Z

Offspring - Lapd tab

The Offspring
L.A.P.D
Ignition
E-Standard

INTRO
(This comes in a little early)

E|-------|----------------|------------------------|-----------------------|
B|-------|----------------|------------------------|-----------------------|
G|-------|----------------|------------------------|-----------------------|
D|-------|----------------|------------------------|-----------------------|
A|-22-22-|-2-2-22-22-22-2-|-22-22-2-2---22-22-22-2-|-2-22-2-2---22-22-22-2-|
E|-------|----------------|------------------------|-----------------------|
   -- --   - -   -- -- -- -   -- -- - -   -- -- -- -   - -- - -   -- -- -- -

E|------------------|------------------------|------------------------|
B|------------------|------------------------|------------------------|
G|------------------|------------------------|------------------------|
D|------------------|------------------------|------------------------|
A|-2-2---22-22-22-2-|-22-22-2-2---22-22-22-2-|-22-22-2-2---22-22-22-2-|
E|------------------|------------------------|------------------------|
   - -   -- -- -- -   -- -- - -   -- -- -- -   - -- - -   -- -- -- -

MAIN RIFF
(mildly palm muted)

E|----------------------|
B|----------------------|
G|----------------------|
D|-4-4-4---45-5-55-2-22-|
A|-2-2-2---23-3-33-0-00-|
E|----------------------|

VERSE

E|---------------------|
B|---------------------|
G|---------------------|
D|-44444444-45555-2222-|
A|-22222222-23333-0000-|
E|---------------------|
   -------- ----- ----

CHORUS

E|---------------|-------------|
B|---------------|-------------|
G|-11/10-10/9-9b-|-------------|
D|-9-/8--8-/7-7b-|-99-99-77-7b-|
A|---------------|-77-77-99-9b-|
E|---------------|-------------|

E|---------------|-------------|
B|---------------|-------------|
G|-11/10-10/9-9b-|-------------|
D|-9-/8--8-/7-7b-|-99-99-77-7b-|
A|---------------|-77-77-99-9b-|
E|---------------|-------------|

E|---------------|-------------|
B|---------------|-------------|
G|-11/10-10/9-9b-|-------------|
D|-9-/8--8-/7-7b-|-99-99-77-7b-|
A|---------------|-77-77-99-9b-|
E|---------------|-------------|

E|--------------------|
B|--------------------|
G|--------------------|
D|-2-22-7-77-744-44-4-|
A|-0-00-5-55-522-22-2-|
E|--------------------|
                 -- -

VERSE

E|---------------------|
B|---------------------|
G|---------------------|
D|-44444444-45555-2222-|
A|-22222222-23333-0000-|
E|---------------------|
   -------- ----- ----

CHORUS

E|---------------|-------------|
B|---------------|-------------|
G|-11/10-10/9-9b-|-------------|
D|-9-/8--8-/7-7b-|-99-99-77-7b-|
A|---------------|-77-77-99-9b-|
E|---------------|-------------|

E|---------------|-------------|
B|---------------|-------------|
G|-11/10-10/9-9b-|-------------|
D|-9-/8--8-/7-7b-|-99-99-77-7b-|
A|---------------|-77-77-99-9b-|
E|---------------|-------------|

E|---------------|-------------|
B|---------------|-------------|
G|-11/10-10/9-9b-|-------------|
D|-9-/8--8-/7-7b-|-99-99-77-7b-|
A|---------------|-77-77-99-9b-|
E|---------------|-------------|

E|--------------------|
B|--------------------|
G|--------------------|
D|-2-22-7-77-744-44-4-|
A|-0-00-5-55-522-22-2-|
E|--------------------|
                 -- -

MAIN RIFF
(mildly palm muted)

E|----------------------|
B|----------------------|
G|----------------------|
D|-4-4-4---45-5-55-2-22-|
A|-2-2-2---23-3-33-0-00-|
E|----------------------|

SOLO

E|-------10-10-9-9-------9-9----------------|
B|-12-12-----------10-10-----10-10---11b^^^-|
G|------------------------------------------|
D|------------------------------------------|
A|------------------------------------------|
E|------------------------------------------|

E|-------10-10-9-9-------9-9----------------|
B|-12-12-----------10-10-----10-10---11b^^^-|
G|------------------------------------------|
D|------------------------------------------|
A|------------------------------------------|
E|------------------------------------------|

E|-------14-14-12-12-------12-12----------------|
B|-12-12-------------13-13-------13-13---14b^^^-|
G|----------------------------------------------|
D|----------------------------------------------|
A|----------------------------------------------|
E|----------------------------------------------|

E|----|----------------------14/////-|
B|-12-|-12-12-12-12/11^---12---------|
G|----|------------------------------|
D|----|------------------------------|
A|----|------------------------------|
E|----|------------------------------|

CHORUS

E|---------------|-------------|
B|---------------|-------------|
G|-11/10-10/9-9b-|-------------|
D|-9-/8--8-/7-7b-|-99-99-77-7b-|
A|---------------|-77-77-99-9b-|
E|---------------|-------------|

E|---------------|-------------|
B|---------------|-------------|
G|-11/10-10/9-9b-|-------------|
D|-9-/8--8-/7-7b-|-99-99-77-7b-|
A|---------------|-77-77-99-9b-|
E|---------------|-------------|

E|---------------|-------------|
B|---------------|-------------|
G|-11/10-10/9-9b-|-------------|
D|-9-/8--8-/7-7b-|-99-99-77-7b-|
A|---------------|-77-77-99-9b-|
E|---------------|-------------|

E|--------------------|
B|--------------------|
G|--------------------|
D|-2-22-7-77-744-44-4-|
A|-0-00-5-55-522-22-2-|
E|--------------------|
                 -- -

VERSE

E|---------------------|
B|---------------------|
G|---------------------|
D|-44444444-45555-2222-|
A|-22222222-23333-0000-|
E|---------------------|
   -------- ----- ----

CHORUS

E|---------------|-------------|
B|---------------|-------------|
G|-11/10-10/9-9b-|-------------|
D|-9-/8--8-/7-7b-|-99-99-77-7b-|
A|---------------|-77-77-99-9b-|
E|---------------|-------------|

E|---------------|-------------|
B|---------------|-------------|
G|-11/10-10/9-9b-|-------------|
D|-9-/8--8-/7-7b-|-99-99-77-7b-|
A|---------------|-77-77-99-9b-|
E|---------------|-------------|

E|---------------|-------------|
B|---------------|-------------|
G|-11/10-10/9-9b-|-------------|
D|-9-/8--8-/7-7b-|-99-99-77-7b-|
A|---------------|-77-77-99-9b-|
E|---------------|-------------|

E|--------------------|
B|--------------------|
G|--------------------|
D|-2-22-7-77-744-44-4-|
A|-0-00-5-55-522-22-2-|
E|--------------------|

E|--------------------|
B|--------------------|
G|--------------------|
D|-2-22-7-77-744-44-4-|
A|-0-00-5-55-522-22-2-|
E|--------------------|

E|--------------------|
B|--------------------|
G|--------------------|
D|-2-22-7-77-744-44-4-|
A|-0-00-5-55-522-22-2-|
E|--------------------|

end
Tap to rate this tab
 
# A B C D E F G H I J K L M N O P Q R S T U V W X Y Z