Song name
# A B C D E F G H I J K L M N O P Q R S T U V W X Y Z

Offspring - Total Immortal tab

Artist: The Offspring
Song: Total Immortal
Tuning: Standard (EADGBe)
Tabber: Dan Fallows (Sick of you)

Intro/Verse
e|----------------|----------------|----------------|
B|----------------|----------------|----------------|
G|-----9-----777--|-----9-----xxx--|-----9-----777--|
D|--2--9--5--777--|--2--9--5--xxx--|--2--9--5--777--|
A|--2--7--5--555--|--2--7--5--xxx--|--2--7--5--555--|
E|--0-----3-------|--0-----3-------|--0-----3-------|

e|------------------|
B|------------------|
G|--------99999999--|
D|--5--7--99999999--|
A|--5--7--77777777--|
E|--3--5------------|

Verse
e|--------------------|
B|--------------------|
G|--------------------|
D|--7--8--5--5555-5~--|
A|--7--8--5--5555-5~--|
E|--5--6--3--3333-3~--|
             xxxx

Verse Riff (Don't know if it's dead on) Repeat x3
e|--------------------------------------|
B|--101010-121212--------10-------------|
G|----------------121212----12-11-9-11--|
D|--------------------------------------|
A|--------------------------------------|
E|--------------------------------------|

Pre Chorus 1
e|--------------|
B|--------------|
G|-----------9--|
D|--9999999--9--|
A|--9999999--7--|
E|--7777777-----|
    xxxxxxx              

Pre Chorus 2 ''This pain never seems to...''
e|----------------------------|
B|----------------------------|
G|-------------------99999-9--|
D|--222222222222222--99999-9--| <--You will know 
A|--222222222222222--77777-7--|  how long to Palm mute
E|--000000000000000-----------|  
    xxxxxxxxxxxxxxx  

Chorus
e|------------------------------------------------|
B|------------------------------------------------|
G|--999999-----------777777--9--77--99--12121212--| 
D|--999999--5555555--777777--9--77--99--12121212--| x2
A|--777777--5555555--555555--7--55--77--10101010--|
E|----------3333333-------------------------------|

Intro/Verse
e|----------------|-----------------|----------------|
B|----------------|-----------------|----------------|
G|-----9-----777--|-----9-----xxxx--|-----9-----777--|
D|--2--9--5--777--|--2--9--5--xxxx--|--2--9--5--777--|
A|--2--7--5--555--|--2--7--5--xxxx--|--2--7--5--555--|
E|--0-----3-------|--0-----3--------|--0-----3-------|

e|---------------|
B|---------------|
G|--------99999--|
D|--5--7--99999--|
A|--5--7--77777--|
E|--3--5---------|


Verse
e|------------------|
B|------------------|
G|------------------|
D|--7--8--5--5555~--|
A|--7--8--5--5555~--|
E|--5--6--3--3333~--|
             xxx 

Verse Riff (Don't know if it's dead on) Repeat x3
e|--------------------------------------|
B|--101010-121212--------10-------------|
G|----------------121212----12-11-9-11--|
D|--------------------------------------|
A|--------------------------------------|
E|--------------------------------------|

Pre Chorus 1
e|--------------|
B|--------------|
G|-----------9--|
D|--9999999--9--|
A|--9999999--7--|
E|--7777777-----|
    xxxxxxx              

Pre Chorus 2 ''This pain never seems to...''
e|---------------------------|
B|---------------------------|
G|-------------------999999--|
D|--222222222222222--999999--| <--You will know 
A|--222222222222222--777777--|  how long to Palm mute
E|--000000000000000----------|  
    xxxxxxxxxxxxxxx  

Chorus
e|------------------------------------------------|
B|------------------------------------------------|
G|--999999-----------777777--9--77--99--12121212--| x1
D|--999999--5555555--777777--9--77--99--12121212--|
A|--777777--5555555--555555--7--55--77--10101010--|
E|----------3333333-------------------------------|

e|------------------------------------------------|------|
B|------------------------------------------------|------|
G|--999999-----------777777--9--77--99--12121212--|------|
D|--999999--5555555--777777--9--77--99--12121212--|--2~--| x1
A|--777777--5555555--555555--7--55--77--10101010--|--2~--|
E|----------3333333-------------------------------|--0~--|
                                                    /|\
           End on until bass kicks in----------------|

Breakdown   Repeat x2  ''Now every face''    
e|----------------------|------|
B|----------------------|------|
G|--9--99999--9--999\7--|------|
D|--9--99999--9--999\7--|--2~--| 
A|--7--77777--7--777\5--|--2~--|<--End with this
E|----------------------|--0~--|
                                                     |
Final Chours: Repeat Until Song Ends, End on--------\|/
e|------------------------------------------------|------|
B|------------------------------------------------|------|
G|--999999-----------777777--9--77--99--12121212--|------| 
D|--999999--5555555--777777--9--77--99--12121212--|--2~--| 
A|--777777--5555555--555555--7--55--77--10101010--|--2~--|
E|----------3333333-------------------------------|--0~--|

Any mistakes, let me know, obviously im quite confident that
95% of this is ok, any suggestions for different ways to play
are much welcomed!
Tap to rate this tab
 
# A B C D E F G H I J K L M N O P Q R S T U V W X Y Z