Song name
# A B C D E F G H I J K L M N O P Q R S T U V W X Y Z

Offspring - Lets Hear It For Rock Bottom tab

Let's hear it from rock bottom

INTRO (both guitars)
e|-------------------------------|
B|-------------------------------|
G|-7x77x--------77x77x-----77----|
D|-7x77x-77x55x-77x77x-77x-77----| x2
A|-5x55x-77x55x-55x55x-77x-55----|
E|-------55x33x--------55x-------|


VERSE I
Guitar I
e|-----33-----33------55-----55-------77-----77-----77-----77--|
B|-----33-----33------55-----55-------77-----77-----77-----77--|
G|-----44-----44------66-----66-------77-----77-----77-----77--|
D|-5x5x---5x5x----7x7x---7x7x-----9x9x---9x9x---9x9x---9x9x----| x4
A|-------------------------------------------------------------|
E|-------------------------------------------------------------|
Guitar II
e|-------------------------------------------------------------|
B|-------------------------------------------------------------|
G|-------------------------------------------------------------|
D|-9999-55-99-55--9999-77-99-77---9999----99-----9999----99----|x4
A|-------------------------------------99----99-------99----99-|
E|-------------------------------------------------------------|

Guitar I
e|-----33-----33------55-----55----------------|
B|-----33-----33------55-----55----------------|
G|-----44-----44------66-----66--777777--------|
D|-5x5x---5x5x----7x7x---7x7x----777777-777777-|
A|-------------------------------555555-777777-|
E|--------------------------------------555555-|
Guitar II
e|---------------------------------------------|
B|---------------------------------------------|
G|-------------------------------777777--------|
D|-9999-55-99-55--9999-77-99-77--777777-777777-|
A|-------------------------------555555-777777-|
E|--------------------------------------555555-|


CHORUS (both guitars)
e|-------------------------------|
B|-------------------------------|
G|-7x77x--------77x77x-----77----|
D|-7x77x-77x55x-77x77x-77x-77----| x2
A|-5x55x-77x55x-55x55x-77x-55----|
E|-------55x33x--------55x-------|
 

VERSE II (same verse I)

CHORUS


BEFORE SOLO
Guitar I
e|-------------------------------------------------------|
B|-------------------------------------------------------|
G|-------------------------------------------------------|
D|-7777777777--------------------------------------------|
A|-5555555555--777777777777--555555555555--77777777777---|
E|-------------555555555555--333333333333--55555555555---|
Guitar II
e|-------5x5x--------5x5x5x--------3x3x33--------55555---|
B|-------7x7x--------5x5x5x--------3x3x33--------55555---|
G|-------7x7x--------6x6x6x--------4x4x44--------66666---|
D|-77777-7x7x--------7x7x7x--------5x5x55--------77777---|
A|-55555-------77777---------55555---------77777---------|
E|-------------55555---------33333---------55555---------|

Both guitars
e|-------------------------------------------------------------------------------------------|
B|-------------------------------------------------------------------------------------------|
G|-7777777777-------------------------------------------999999999-121212121212-141414141414--|
D|-7777777777--777777777777--555555555555--77777777777--999999999-121212121212-141414141414--|
A|-5555555555--777777777777--555555555555--77777777777--777777777-101010101010-121212121212--|
E|-------------555555555555--333333333333--55555555555---------------------------------------|

Guitar I
e|--3--5--7---7-----3--5--7-|
B|--3--5--7-----7---3--5--7-|
G|--4--6--7--7------4--6--7-|
D|--5--7--9---------5--7--9-|
A|--------------------------|
E|--------------------------|
Guitar II (soundless)


SOLO
Guitar I
e|-3x3x33-3x3x33--5x5x55-5x5x55---7x7x77-7x7x77--7x7x77-7x7x77-|
B|-3x3x33-3x3x33--5x5x55-5x5x55---7x7x77-7x7x77--7x7x77-7x7x77-|
G|-4x4x44-4x4x44--6x6x66-6x6x66---7x7x77-7x7x77--7x7x77-7x7x77-|
D|-5x5x55-5x5x55--7x7x77-7x7x77---9x9x99-9x9x99--9x9x99-9x9x99-| x4
A|-------------------------------------------------------------|
E|-------------------------------------------------------------|
Guitar II
e|-------------------------------------------------------------|
B|-------------------------------------------------------------|
G|-------------------------------------------------------------|
D|-9999-55-99-55--9999-77-99-77---9999----99-----9999----99----|x4
A|-------------------------------------99----99-------99----99-|
E|-------------------------------------------------------------|

Both guitars
e|---------------------------    ---------------|
B|---------------------------    ---------------|
G|---------------------------    -777777--------|
D|---------------------------    -777777-777777-|
A|-555555555555-777777777777- x3 -555555-777777-|
E|-333333333333-555555555555-    --------555555-|


LAST CHORUS (both guitars)
e|-------------------------------|
B|-------------------------------|
G|-7x77x--------77x77x-----77----|
D|-7x77x-77x55x-77x77x-77x-77----| x4
A|-5x55x-77x55x-55x55x-77x-55----|
E|-------55x33x--------55x-------|

Guitar I
e|----------------------------------|
B|----------------------------------|
G|-7x77x------------77x77x-----77---|
D|-7x77x-77x55x-----77x77x-77x-77---| x6
A|-5x55x-77x55x-----55x55x-77x-55---|
E|-------55x33x------------55x------|
Guitar II
e|----------------------------------|
B|----------------------------------|
G|-7x77x-9x911-9-7--77x77x-9x9-7-7--|
D|-7x77x------------77x77x----------| x6
A|-5x55x-7x79--7-5--55x55x-7x7-5-5--|
E|----------------------------------|


In my perfect isolation
I can stay here for awhile
Antidotes and revelations
Just extend my own exile

Wasting away
The worlds right in front of me
Funny you should say
That its all in my head
Wasting away
Were hitting rock bottom
And going down in flames
Well its not that bad

With my lack of observation
I can stay in here for days
Could you find my motivation
I cant see it through this haze
 
Wasting away
The worlds right in front of me
Funny you should say
That its all in my head
Wasting away
Were hitting rock bottom
And going down in flames
Well its not that bad

Wishing away
The worlds right in front of me
Call me anyway
Cause its all in my head
Wasting away
Were hitting rock bottom
And going down in flames
Well its not that bad

Wasting all my days
What would Ivan say
Wasting all my days
What would Ivan say

Wasting away
Were hitting rock bottom
Call me anyway
Cause I got two friends
Wasting away
Were going down together
And all in all its not so bad
All in all its not so bad

Its hard to know
Where to start and where to go
I will never say these words again 
Tap to rate this tab
# A B C D E F G H I J K L M N O P Q R S T U V W X Y Z