Song name
# A B C D E F G H I J K L M N O P Q R S T U V W X Y Z

Offspring - Dirty Magic Acoustic tab

Offspring
"Dirty Magic"
Ignition
Tabbed by Pcorrigan07



Guitar 1
Intro/Main Riff 
e||-----------------------------------------------------------------------||
B||-----------------------------------------------------------------------||
G||-----------------------------------------------------------------------||
D||-----------------------------------------------------------------------||
A||-------------7------7----------10----------9--------2---3-2~--2---3-2~-||
E||---3--3\5-5----5--5---5--5\8-8----8--8/7-7---7--7/0---0-----0---0------||
                                                       ^Gtr. 2 enter  
                                                              every other bar
Guitar 2
e||0-0-0-0-0-0-0-0-0-0-0-0-0/0-0-0-0\0--0-0-0--0-0-0-0-0-0/0--0-0--0---0-0-||
B||5-5-5-5-5-5-5-5-5-5-5-5-5/3-3-3-3\5--5-5-5--5-5-5-5-5-5/3--3-3--5---0-0-||
G||------------------------------------------------------------------------||
D||------------------------------------------------------------------------||
A||------------------------------------------------------------------------||
E||------------------------------------------------------------------------||


Chorus
e||-----------------------------------------------------------||
B||-----------------------------------------------------------||
G||--7\9--9-9--9----7\9--9-9--9---------------7--7-7--7-9-7---||
D||--7\9--9-9--9----7\9--9-9--9---5-5--5-7-5--7--7-7--7-7-7---||x3
A||--5\7--7-7--7----5\7--7-7--7---5-5--5-5-5--5--5-5--5-5-5---||
E||-------------------------------3-3--3-3-3------------------||

e||----------------------------------------0--||
B||----------------------------------------0--||
G||----------------------------------------0--||
D||--7-7--7-7-7--7\10-10-10-10--9-9-9-9----2--||
A||--7-7--7-7-7--7\10-10-10-10--9-9-9-9----2--||
E||--5-5--5-5-5--5\8--8--8--8---7-7-7-7----0--||


Bridge
Guitar 1
e||-----------------------------------------------------------------------||
B||-----------------------------------------------------------------------||
G||-----------------------------------------------------------------------||
D||-----------------------------------------------------------------------||
A||-------------7------7----------10----------9--------2---3-2~--2---3-2~-||
E||------3\5-5----5--5---5--5\8-8----8--8/7-7---7--7/0---0-----0---0------||
         ^Gtr 2 enter 2x then into solo 

Guitar 2
e||0-0\0-0-0-0-0-0-0-0-0-0-0/0-0-0-0\0--0-0-0--0-0-0-0-0-0/0--0-0--0---0-0-||
B||3-3\5-5-5-5-5-5-5-5-5-5-5/3-3-3-3\5--5-5-5--5-5-5-5-5-5/3--3-3--5---0-0-||
G||------------------------------------------------------------------------||
D||------------------------------------------------------------------------||
A||------------------------------------------------------------------------||
E||------------------------------------------------------------------------||



Solo x2
0--0--0--0----0--0--0---0- 0---0--0--0---0--0---0--0---0--0---0--0--0-0---0--0---0--0--0--0--0--0|
12-12-12-12---12-12-12--12\13--13-13-13--13-13--13/12--12/10--10/8--8\10--10\12--12-12-12-12-12-12|
G||----------------------------------------------------------------------------------------------||
D||----------------------------------------------------------------------------------------------||
A||----------------------------------------------------------------------------------------------||
E||----------------------------------------------------------------------------------------------||

Bridge again

Chorus again



In my own simple way
I think she wants me only
She said, "Come over right away."
But she's just not that way
Her little soul is stolen
See her put on her brand new face

CHORUS
(Go on and)Pull the shades
Razor blades
You're so tragic
(Go on)I hate you so but love you more
I'm so elastic
(Oh all)The things you say
Games you play
Dirty Magic I...

BRIDGE

I should know better than to
Think I'd reach inside her
It's all a cloudy kind of daze
She's not so sweet today
She mocks me, I'm no fighther
It all just seems like such a waste

CHORUS
BRIDGE
SOLO
BRIDGE
It's oversimplified

CHORUS

First Tab 
Tap to rate this tab
# A B C D E F G H I J K L M N O P Q R S T U V W X Y Z