Song name
# A B C D E F G H I J K L M N O P Q R S T U V W X Y Z

Offspring - Living In Chaos tab

Living In Chaos                           Tuned down half-step for 2 guitars
by The Offspring                          D# G# C# F# A# D#
Tabbed by Axe-maniac

INTRO
|---------------------------------------------------|
|---------------------------------------------------|
|-------2-2---------------------2-2-----------------|  x2
|-------------------4-4-------------4-4-2/4-4-4-5-4-|
|---------------------------------------------------|
|--0h2------0-0-0h2-----0-0-0h2---------------------|

|------------------------------|---------------------------------------|
|------------------------------|---------------------------------------|
|---------2--2-----------------|----------2--2-------------------------|
|------------------------4--4--|----------------4--4--2/4--4--4--5--4--|
|------------------------------|---------------------------------------|
|--0h2----------0-0-0h2--------|-0-0-0h2-------------------------------|
|                              |                                       | x2
|------------------------------|---------------------------------------|
|------------------------------|---------------------------------------|
|-----------11--------------11-|-------------11-11-11-9/11-11-11-12-11-|
|-----------11--------------11-|-------------11-11-11-9/11-11-11-12-11-|
|-----------9---------------9--|-------------9--9--9--7/9--9--9--10-9--|
|--0h2-x-x------0-0-0h2-x-x----|-0-0-0h2-x-x---------------------------|

|---------------------|--------------------|
|---------------------|--------------------|
|--7-7--7-7--7-7--7-7-|-9-9--9-9--9-9--9-9-|
|--7-7--7-7--7-7--7-7-|-9-9--9-9--9-9--9-9-|
|--5-5--5-5--5-5--5-5-|-7-7--7-7--7-7--7-7-|
|---------------------|--------------------|
^Both Guitars^

VERSE
|-----------------------------|----------------------------------|
|-----------------------------|----------------------------------|
|--11~-----------------6-6-11-|-11~---------------14-14-14-13-13-|
|--11~-----------------6-6-11-|-11~---------------14-14-14-13-13-|
|--9~------------------4-4-9--|-9~----------------12-12-12-11-11-|
|-----------------------------|----------------------------------|
|                             |                                  | x2
|--9--10--9-------------------|-9--10--9-------------------------|
|------------10--9----7-------|-----------10--9----7-------------|
|------------------10---------|-----------------10---------------|
|-----------------------------|----------------------------------|
|-----------------------------|----------------------------------|
|-----------------------------|----------------------------------|

|-----------------------------|-----------------------|
|-----------------------------|-----------------------|
|--11~-----------------6-6-11-|-11~-------------------|
|--11~-----------------6-6-11-|-11~-------------------|
|--9~------------------4-4-9--|-9~--------------------|
|-----------------------------|-----------------------|
|                             |                       |
|--9--10--9-------------------|-9--10--9--------------|
|------------10--9----7-------|-----------10--9----7--|
|------------------10---------|-----------------10----|
|-----------------------------|-----------------------|
|-----------------------------|-----------------------|
|-----------------------------|-----------------------|

CHORUS
|------------------------------|---------------------------------------|
|------------------------------|---------------------------------------|
|-----------11--------------11-|-------------11-11-11-9/11-11-11-12-11-|
|-----------11--------------11-|-------------11-11-11-9/11-11-11-12-11-| x2
|-----------9---------------9--|-------------9--9--9--7/9--9--9--10-9--|
|--0h2-x-x------0-0-0h2-x-x----|-0-0-0h2-x-x---------------------------|
^Both Guitars^

|------------------------------|---------------------------------------|
|------------------------------|---------------------------------------|
|---------2--2-----------------|----------2--2-------------------------|
|------------------------4--4--|----------------4--4--2/4--4--4--5--4--|
|------------------------------|---------------------------------------|
|--0h2----------0-0-0h2--------|-0-0-0h2-------------------------------|
|                              |                                       |
|------------------------------|---------------------------------------|
|------------------------------|---------------------------------------|
|-----------11--------------11-|-------------11-11-11-9/11-11-11-12-11-|
|-----------11--------------11-|-------------11-11-11-9/11-11-11-12-11-|
|-----------9---------------9--|-------------9--9--9--7/9--9--9--10-9--|
|--0h2-x-x------0-0-0h2-x-x----|-0-0-0h2-x-x---------------------------|

|------------------------------|----------------------------|
|------------------------------|----------------------------|
|-----------11--------------11-|--------------11~-----------|
|-----------11--------------11-|--------------11~---pause---|
|-----------9---------------9--|--------------9~------------|
|--0h2-x-x------0-0-0h2-x-x----|-0-0-0h2-x-x----------------|
^Both Guitars^

VERSE
|-----------------------------|----------------------------------|
|-----------------------------|----------------------------------|
|--11~-----------------6-6-11-|-11~---------------14-14-14-13-13-|
|--11~-----------------6-6-11-|-11~---------------14-14-14-13-13-|
|--9~------------------4-4-9--|-9~----------------12-12-12-11-11-|
|-----------------------------|----------------------------------|
|                             |                                  |
|--9--10--9-------------------|-9--10--9-------------------------|
|------------10--9----7-------|-----------10--9----7-------------|
|------------------10---------|-----------------10---------------|
|-----------------------------|----------------------------------|
|-----------------------------|----------------------------------|
|-----------------------------|----------------------------------|

|-----------------------------|-----------------------|
|-----------------------------|-----------------------|
|--11~-----------------6-6-11-|-11~-------------------|
|--11~-----------------6-6-11-|-11~-------------------|
|--9~------------------4-4-9--|-9~--------------------|
|-----------------------------|-----------------------|
|                             |                       |
|--9--10--9-------------------|-9--10--9--------------|
|------------10--9----7-------|-----------10--9----7--|
|------------------10---------|-----------------10----|
|-----------------------------|-----------------------|
|-----------------------------|-----------------------|
|-----------------------------|-----------------------|



CHORUS
|------------------------------|---------------------------------------|
|------------------------------|---------------------------------------|
|-----------11--------------11-|-------------11-11-11-9/11-11-11-12-11-|
|-----------11--------------11-|-------------11-11-11-9/11-11-11-12-11-| x2
|-----------9---------------9--|-------------9--9--9--7/9--9--9--10-9--|
|--0h2-x-x------0-0-0h2-x-x----|-0-0-0h2-x-x---------------------------|
^Both Guitars^

|------------------------------|---------------------------------------|
|------------------------------|---------------------------------------|
|---------2--2-----------------|----------2--2-------------------------|
|------------------------4--4--|----------------4--4--2/4--4--4--5--4--|
|------------------------------|---------------------------------------|
|--0h2----------0-0-0h2--------|-0-0-0h2-------------------------------|
|                              |                                       |
|------------------------------|---------------------------------------|
|------------------------------|---------------------------------------|
|-----------11--------------11-|-------------11-11-11-9/11-11-11-12-11-|
|-----------11--------------11-|-------------11-11-11-9/11-11-11-12-11-|
|-----------9---------------9--|-------------9--9--9--7/9--9--9--10-9--|
|--0h2-x-x------0-0-0h2-x-x----|-0-0-0h2-x-x---------------------------|

|------------------------------|---------------------------------------|
|------------------------------|---------------------------------------|
|-----------11--------------11-|-------------11-11-11-9/11-11-11-12-11-|
|-----------11--------------11-|-------------11-11-11-9/11-11-11-12-11-|
|-----------9---------------9--|-------------9--9--9--7/9--9--9--10-9--|
|--0h2-x-x------0-0-0h2-x-x----|-0-0-0h2-x-x---------------------------|
^Both Guitars^

BRIDGE
(Both Guitars)
|-----------------------|------------------------------|
|------------------3~---|------------------------------|
|--4~---4-4-4-4-4--2~---|------------------------------|
|--4~---4-4-4-4-4--0~---|--7~---7-7-7-7-7---5~--5-7~---| x2
|--2~---2-2-2-2-2-------|--7~---7-7-7-7-7---5~--5-7~---|
|-----------------------|--5~---5-5-5-5-5---3~--3-5~---|

CHORUS
|------------------------------|-----------------------------|
|------------------------------|-----------------------------|
|-----------11--------------11-|-------------11--------------|
|-----------11--------------11-|-------------11----5~--7~----| x3
|-----------9---------------9--|-------------9-----5~--7~----|
|--0h2-x-x------0-0-0h2-x-x----|-0-0-0h2-x-x-------3~--5~----|
^Both Guitars^

|------------------------------|----------------------------------|
|------------------------------|----------------------------------|
|---------2--2-----------------|----------2--2--------------------|
|------------------------4--4--|----------------4--4--2/4--4--4---|
|------------------------------|----------------------------------|
|--0h2----------0-0-0h2--------|-0-0-0h2--------------------------|

VERSE
|-----------------------------|----------------------------------|
|-----------------------------|----------------------------------|
|--11~-----------------6-6-11-|-11~---------------14-14-14-13-13-|
|--11~-----------------6-6-11-|-11~---------------14-14-14-13-13-|
|--9~------------------4-4-9--|-9~----------------12-12-12-11-11-|
|-----------------------------|----------------------------------|
|                             |                                  |
|--9--10--9-------------------|-9--10--9-------------------------|
|------------10--9----7-------|-----------10--9----7-------------|
|------------------10---------|-----------------10---------------|
|-----------------------------|----------------------------------|
|-----------------------------|----------------------------------|
|-----------------------------|----------------------------------|

|-----------------------------|----------------------------------------|
|-----------------------------|----------------------------------------|
|--11~-----------------6-6-11-|-11~---------------2-2------------------|
|--11~-----------------6-6-11-|-11~--------------------4-4-2/4-4-4-5-4-|
|--9~------------------4-4-9--|-9~-------------------------------------|
|-----------------------------|---------------0h2----------------------|
|                             |                                        |
|--9--10--9-------------------|-9--10--9-------------------------------|
|------------10--9----7-------|-----------10---------------------------|
|------------------10---------|----------------------------------------|
|-----------------------------|----------------------------------------|
|-----------------------------|----------------------------------------|
|-----------------------------|----------------------------------------|

BRIDGE
(Both Guitars)
|-----------------------|------------------------------|
|------------------3~---|------------------------------|
|--4~---4-4-4-4-4--2~---|------------------------------|
|--4~---4-4-4-4-4--0~---|--7~---7-7-7-7-7---5~--5-7~---| x2
|--2~---2-2-2-2-2-------|--7~---7-7-7-7-7---5~--5-7~---|
|-----------------------|--5~---5-5-5-5-5---3~--3-5~---|

CHORUS (Both Guitars)
|------------------------------|-----------------------------|
|------------------------------|-----------------------------|
|-----------11--------------11-|-------------11--------------|
|-----------11--------------11-|-------------11----5~--7~----| x3
|-----------9---------------9--|-------------9-----5~--7~----|
|--0h2-x-x------0-0-0h2-x-x----|-0-0-0h2-x-x-------3~--5~----|

|------------------------------------|--------------------------|
|------------------------------------|--------------------------|
|-----------11--------------11-11-11-|--9/11-11-11-11-11-11-----|
|-----------11--------------11-11-11-|--9/11-11-11-11-11-11-----|
|-----------9---------------9--9--9--|--7/9--9--9--9--9--9------|
|--0h2-x-x------0-0-0h2-x-x----------|--------------------------|
Tap to rate this tab
# A B C D E F G H I J K L M N O P Q R S T U V W X Y Z