Song name
# A B C D E F G H I J K L M N O P Q R S T U V W X Y Z

Offspring - Gotta Get Away tab

Alright here's my first time tabbing a song out, please don't hold back on the 
criticism. (The song structure is on the bottom)  *=Harmonic
Palm mute the notes at your own style

Riff #1

    * *                                         * *
e:--------------------|                    |e---------------------|
B:------8 X 8-7\5-----|                    |B:------8 X 8-10\5----|
G:--7-7-7-X-7-7\4-----| Wait about 4 beats |G:--7-7-7-X-7--7\4----|
D:--------------------|                    |D:--------------------|
A:--------------------|                    |A:--------------------|
E:--------------------|                    |E:--------------------|

Riff #2
e:------------------------------------------------------------------------|
B:------------------------------------------------------------------------|
G:-----7-7-----7-7-----9-9-----9-9-----12-12-----14-14--9--9-10--9--10-9-9|
D:-----7-7-----7-7-----9-9-----9-9-----12-12-----14-14--9--9-10--9--10-9-9|
A:-----5-5-----5-5-----7-7-----7-7-----10-10-----12-12--7--7--7--7--7--7-7|
E:-0-0-----0-0-----0-0-----0-0-----0-0-------0-0--------------------------|

Riff #3
e:----------------------------------------------------|
B:----------------------------------------------------|
G:-9----9------------------12-12-12-12---------------9|
D:-9----9--10--10--10--10--12-12-12-12--12-12-12-12--9|
A:-7----7--10--10--10--10--10-10-10-10--12-12-12-12--7|
E:---------8---8---8---8----------------10-10-10-10---|

Riff #4

e:-----------------|              |e---------------------|
B:-------8---8--7-5|              |B:------8 X 8-10\5----|
G:--X----7-X-7--7\4| wait 4 beats |G:--7-7-7-X-7--7\4----|
D:--X--------------|              |D:--------------------|
A:-----------------|              |A:--------------------|
E:-----------------|              |E:--------------------|


Riff #5 (very last note)
e:---------------------|
B:---------------------|
G:---------------------|
D:-2-------------------|
A:-2-------------------|
E:-0-------------------|

Song Structure:

Riff #1 X2
Riff #2 X6
Riff #3 X4
Riff #2 X6
Riff #3 X6
Riff #4 X1
Riff #1 X1
Riff #2 X2
Riff #3 X7
Riff #5 X1
Tap to rate this tab
# A B C D E F G H I J K L M N O P Q R S T U V W X Y Z