Song name
# A B C D E F G H I J K L M N O P Q R S T U V W X Y Z

Offspring - Hurting As One tab

-------------------------------------------------------------------------------
                             Hurting As One - The Offspring
-------------------------------------------------------------------------------
Tabbed by: Brian Wells
E-mail:

Tuning: Standard

 Intro
e|-----8--------6-4-------8-------6-4----------------------------------------|
B|---6--------6---------6-------6--------------------------------------------|
G|-5--------5---------5-------5----------------------------------------------|
D|---------------------------------------------------------------------------|
A|---------------------------------------------------------------------------|
E|---------------------------------------------------------------------------|

 Verse
e|---------------------------------------------------------------------------|
B|---------------------------------------------------------------------------|
G|---------8-------------------8--8------------------------------------------|
D|-3--6-6--8--8-10-3--3/6-6--6-8--8-8-10-3-----------------------------------|x2
A|-3--6-6--6--8-10-3--3/6-6--4-6--6-8-10-3-----------------------------------|
E|-1--4-4-----6--8-1--1/4-4--4------6--8-1-----------------------------------|

 Guitar 1 (Palm Muted)
e|---------------------------------------------------------------------------|
B|---------------------------------------------------------------------------|
G|-6-6-6-6-6-6-6-6-8-8-8-8-8-8-8-8-10-10-10-10-10-10-10-10-------------------|
D|-6-6-6-6-6-6-6-6-8-8-8-8-8-8-8-8-10-10-10-10-10-10-10-10-6-6-6-6-6-6-6-6---|
A|-4-4-4-4-4-4-4-4-6-6-6-6-6-6-6-6--8--8--8--8--8--8--8--8-6-6-6-6-6-6-6-6---|
E|---------------------------------------------------------4-4-4-4-4-4-4-4---|
 |Guitar 2                                                                   |
e|---------------------------------------------------------------------------|
B|---------------------------------------------------------------------------|
G|-10--10--10--10--10--10--10--10---10----10----10----10---10--10--10--10----|
D|-10--10--10--10--10--10--10--10---10----10----10----10---10--10--10--10----|
A|--8---8---8---8---8---8---8---8----8-----8-----8-----8---10---8---8---8----|
E|---------------------------------------------------------------------------|

 Guitar 1 (Palm Muted Except Last Note)
e|------------------------------------------------------------------------------|
B|------------------------------------------------------------------------------|
G|-6-6-6-6-6-6-6-6--8-----------------------------------------------------------|
D|-6-6-6-6-6-6-6-6--8-----------------------------------------------------------|
A|-4-4-4-4-4-4-4-4--6-----------------------------------------------------------|
E|------------------------------------------------------------------------------|
 |Guitar 2
e|---------------------------------------------------------------------------|
B|---------------------------------------------------------------------------|
G|-10--10--10--10------------------------------------------------------------|
D|-10--10--10--10------------------------------------------------------------|
A|--8---8---8---8------------------------------------------------------------|
E|---------------------------------------------------------------------------|

 Chorus
e|-----------------------------|
B|-----------------------------|
G|-10-10-------6-6--8-6-8------|
D|-10-10--6-6--6-6--8-6-8------|x4
A|--8--8--6-6--4-4--6-4-6------|
E|--------4-4------------------|

e|-----8--------6-4----|
B|---6--------6--------|
G|-5--------5----------|
D|---------------------|
A|---------------------|
E|---------------------|

 Verse
e|---------------------------------------------------------------------------|
B|---------------------------------------------------------------------------|
G|---------8-------------------8--8------------------------------------------|
D|-3--6-6--8--8-10-3--3/6-6--6-8--8-8-10-3-----------------------------------|x2
A|-3--6-6--6--8-10-3--3/6-6--4-6--6-8-10-3-----------------------------------|
E|-1--4-4-----6--8-1--1/4-4--4------6--8-1-----------------------------------|

Guitar 1 (Palm Muted)
e|---------------------------------------------------------------------------|
B|---------------------------------------------------------------------------|
G|-6-6-6-6-6-6-6-6-8-8-8-8-8-8-8-8-10-10-10-10-10-10-10-10-------------------|
D|-6-6-6-6-6-6-6-6-8-8-8-8-8-8-8-8-10-10-10-10-10-10-10-10-6-6-6-6-6-6-6-6---|
A|-4-4-4-4-4-4-4-4-6-6-6-6-6-6-6-6--8--8--8--8--8--8--8--8-6-6-6-6-6-6-6-6---|
E|---------------------------------------------------------4-4-4-4-4-4-4-4---|
 |Guitar 2                                                                   |
e|---------------------------------------------------------------------------|
B|---------------------------------------------------------------------------|
G|-10--10--10--10--10--10--10--10---10----10----10----10---10--10--10--10----|
D|-10--10--10--10--10--10--10--10---10----10----10----10---10--10--10--10----|
A|--8---8---8---8---8---8---8---8----8-----8-----8-----8---10---8---8---8----|
E|---------------------------------------------------------------------------|

e|---------------------------------------------------------------------------|
B|---------------------------------------------------------------------------|
G|-6-----------8-------------------------------------------------------------|
D|-6-----------8-------------------------------------------------------------|
A|-4-----------6-------------------------------------------------------------|
E|---------------------------------------------------------------------------|

Chorus
e|-----------------------------|
B|-----------------------------|
G|-10-10-------6-6--8-6-8------|
D|-10-10--6-6--6-6--8-6-8------|x4
A|--8--8--6-6--4-4--6-4-6------|
E|--------4-4------------------|

 Solo
e|-8----6----4----6-------------8----6----4----3----3------------------------|
B|---9----8----6----8-------------9----8----6----4----4----------------------|
G|--------------------8----------------------------3----3--------------------|
D|----------------------8h10-------------------------------------------------|
A|---------------------------------------------------------------------------|
E|---------------------------------------------------------------------------|


e|-8-----6---6------4---4----------------------------------------------------|
B|---9-----8--8h9-----6--6h8-------------------------------------------------|
G|---------------------------------5-----------------------------------------|
D|---------------------------------5-----------------------------------------|
A|---------------------------------3-----------------------------------------|
E|---------------------------------------------------------------------------|

e|-----------------------------------------------------|  |---------|
B|-----------------------------------------------------|  |---------|
G|-6--6--6--6--8--8--8--8--10--10--10--10--------------|  |-6----8--|
D|-6--6--6--6--8--8--8--8--10--10--10--10--6--6--6--6--|x2|-6----8--|
A|-4--4--4--4--6--6--6--6---8---8---8---8--6--6--6--6--|  |-4----6--|
E|-----------------------------------------4--4--4--4--|  |---------|

Chorus/Outro
e|-----------------------------|  |-------------------|
B|-----------------------------|  |-------------------|
G|-10-10-------6-6--8-6-8------|  |-10-10--10-10--10--|
D|-10-10--6-6--6-6--8-6-8------|x8|-10-10--10-10--10--|
A|--8--8--6-6--4-4--6-4-6------|  |--8--8---8--8---8--|
E|--------4-4------------------|  |-------------------|


************************************

| /   slide up
| \   slide down
| h   hammer-on
| p   pull-off
| ~   vibrato
| +   harmonic
| x   Mute note
| b   Bend
| pb  Pre-bend
| br  Bend release
| pbr Pre-bend release
| brb Bend release bend

************************************
Tap to rate this tab
 
# A B C D E F G H I J K L M N O P Q R S T U V W X Y Z