Song name
# A B C D E F G H I J K L M N O P Q R S T U V W X Y Z

Offspring - Cruising California Bumpin In My Trunk tab

-----------------------------------------------------------------------------
                    Cruising California (Bumpin' In My Trunk)
-----------------------------------------------------------------------------

Email: xxda4kxx@aim.com

--------------------
Tuning:  Standard
--------------------

INTRO
  The Intro is the same thing as the Main Riff but palm muted  X 2

MAIN RIFF
             G5                   D5                E5            C5
E|-------------------------------------------------------------------------|
B|-------------------------------------------------------------------------|
G|--12-12-12-12-12-12-12-12--7-7-7-7-7-7-7-7--9-9-9-9-9-9-9-9--5-5-5-5-5---|
D|--12-12-12-12-12-12-12-12--7-7-7-7-7-7-7-7--9-9-9-9-9-9-9-9--5-5-5-5-5---|
A|--10-10-10-10-10-10-10-10--5-5-5-5-5-5-5-5--7-7-7-7-7-7-7-7--3-3-3-3-3---|
E|-------------------------------------------------------------------------|

E|----------|
B|----------|
G|--5-5-5---|
D|--5-5-5---|
A|--3-3-3---|
E|----------|

RIFF 2

E|---15-17---15-17---15-17---17-19-17-15-17--|
B|-------------------------------------------|
G|-------------------------------------------|
D|-------------------------------------------|
A|-------------------------------------------|
E|-------------------------------------------|

RIFF 3

E|---15-17---15-17---15-17---20-19-17-15-17--|
B|-------------------------------------------|
G|-------------------------------------------|
D|-------------------------------------------|
A|-------------------------------------------|
E|-------------------------------------------|

OUTRO
  The Outro is the same thing as the Main Riff but palm muted  X 2


Please email me for any concerns, thanks.
Tap to rate this tab
# A B C D E F G H I J K L M N O P Q R S T U V W X Y Z