Song name
# A B C D E F G H I J K L M N O P Q R S T U V W X Y Z

Offspring - Days Go By tab

This is the 98% correct version according to the two radio show videos I watched on 
YouTube. So I guess this is the "acoustic" version, but I don't see why it wouldn't work for 
electric as well.

This is a basic overview of the whole song, so not everything is in order and perfectly 
how it should be. Hope this helps everybody!

*Tune 1/2 step down w/ capo on 2nd
OR
*You can play in Standard with capo on 1st...just transpose

All notes are relative to CAPO!!

* = Check Dexter's strumming - it follows the main melody.

Intro:
Dexter:                                                                   |
e-3-3-----------------------------------------------------3-3-5-----3-3-5-|
B-5-5-----------------------------------------------------5-5-7-----5-5-7-|
G-5-5---5/4---4/2---2p0-----------------5/4---4/2---2/7-7-5-5-7-12x-5-5-7-|
D-5-5-0-----0-----0-----0-5-0-5/7-5p4-0-----0-----0-------5-5-7-----5-5-7-|
A-3-3-----------------------------------------------------3-3-5-----3-3-5-|
E-------------------------------------------------------------------------|

    v ^ v ^ * * *
----x-x-x-x-5-3-3-5-5-x-5-5-x-5-5-5-3-3--|
----x-x-x-x-7-5-3-7-7-x-7-7-x-7-7-7-5-5--|
12x-x-x-x-x-7-5-4-7-7-0-7-7-0-7-7-7-5-5--|
----x-x-x-x-7-5-5-7-7-0-7-7-0-7-7-7-5-5--|
----x-x-x-x-5-3-5-5-5-5-5-5-5-5-5-5-3-3--|
----------------3------------------------|


Noodles:
e-3-3----------------------------------------------------------------------------|
B-5-5-----------------------------------------------------3-3--------------------|
G-5-5---5/4---4/2---2p0-----------------5/4---4/2---2/7-7-0-0---5/4---4/2---2p0--|
D-5-5-0-----0-----0-----0-5-0-5/7-5/4-0-----0-----0-------0-0-0-----0-----0-----0|
A-3-3-----------------------------------------------------3-3--------------------|
E--------------------------------------------------------------------------------|

---------------------------------|
---------------------------------|
---------------5/4---4/2---2/7-7-|
-5-0-5/7-5/4-0-----0-----0-------|
---------------------------------|
---------------------------------|


Noodles cont.:
e---------------------------------------------------------------------------3-3-3-3-3-3-3-3-3----|R
B---------------------------------------------------------------------------2-2-2-2-2-2-2-2-2-3-3|E
G-------7---5---2---------------7---5---2---------------7---5---2-----------3-3-0-3-3-0-3-3-0-0-0|P
D-5/7-0---0---0---0-5-4---5/7-0---0---0---0-5-4---5/7-0---0---0---0-5/7-5/4-0-0-0-0-0-0-0-0-0-0-0|E
A-----------------------5-----------------------5---------------------------------------------3-3|A
E------------------------------------------------------------------------------------------------|T

Verse:
Dexter: D, C, G
Noodles: D, C, G
Listen to the way Noodles plays his D - he does some stuff with the e string. Also I 
believe he plays the C cord like this instead:
e---
B-3-
G-0-
D-0-
A-3-
E---

Chorus:
Dexter:
 (C G D Am C, G, D) x2
e---3-2-0--|
B-3-3-3-1--|
G-0-0-2-2--|
D-0-0-0-2--|
A-3-0---0--|
E---3------|


Noodles:
e-3-3-5-5-3-3-5-|
B-5-3-7-5-5-3-7-|
G-5-4-7-6-5-4-7-|
D-5-5-7-7-5-5-7-|
A-3-5-5-7-3-5-5-|
E---3---5---3---|
Tap to rate this tab
# A B C D E F G H I J K L M N O P Q R S T U V W X Y Z