Song name
# A B C D E F G H I J K L M N O P Q R S T U V W X Y Z

Offspring - I Wanna Secret Family With You tab

-------------------------------------------------------------------------------
            I Wanna Secret Family (With You) - The Offspring
-------------------------------------------------------------------------------

Tuning: Standard

Intro 1
e|---------------------------------------------------------------------------|
B|---------------------------------------------------------------------------|
G|----6------6------6------6-------------------------------------------------|
D|-6--6---6--6---6--6---6--6-------------------------------------------------|
A|-6--4---6--4---6--4---6--4-------------------------------------------------|
E|-4------4------4------4----------------------------------------------------|

Intro 2
e|---------------------------------------------------------------------------|
B|---------------------------------------------------------------------------|
G|----------6----------------------------------------------------------------|
D|--6-------6-(x4)-----------------------------------------------------------| x4
A|--6-(x4)--4----------------------------------------------------------------|
E|--4------------------------------------------------------------------------|

Verse
e|---------------------------------------------------------------------------|
B|---------------------------------------------------------------------------|
G|----6------6------6------6-------------------------------------------------|
D|-6--6---6--6---6--6---6--6-------------------------------------------------|
A|-6--4---6--4---6--4---6--4-------------------------------------------------|
E|-4------4------4------4----------------------------------------------------|

e|---------------------------------------------------------------------------|
B|---------------------------------------------------------------------------|
G|----6------6------6--------------------------------------------------------|
D|-6--6---6--6---6--6---6----------------------------------------------------|
A|-6--4---6--4---6--4---6----------------------------------------------------|
E|-4------4------4------4----------------------------------------------------|

Chorus (Strumming pattern: D D UDUD D DU) (repeat everything twice)
e|---------------------------------------------------------------------------|
B|---------------------------------------------------------------------------|
G|---------6-------8---------------------------------------------------------|
D|-6-------6-(x9)--8-(x9)----------------------------------------------------|
A|-6-(x9)--4-------6---------------------------------------------------------|
E|-4-------------------------------------------------------------------------|

e|---------------------------------------------------------------------------|
B|---------------------------------------------------------------------------|
G|-6-------------------------------------------------------------------------|
D|-6-(x3)--6-(x3)--6-(x2)----------------------------------------------------|
A|-4-------3-------4---------------------------------------------------------|
E|---------------------------------------------------------------------------|

Verse 2 (same as verse 1, just repeat more times)


Chorus 2 (Strumming pattern: D D UDUD D DU) (repeat everything 4x)
e|---------------------------------------------------------------------------|
B|---------------------------------------------------------------------------|
G|---------6-------8---------------------------------------------------------|
D|-6-------6-(x9)--8-(x9)----------------------------------------------------|
A|-6-(x9)--4-------6---------------------------------------------------------|
E|-4-------------------------------------------------------------------------|

e|---------------------------------------------------------------------------|
B|---------------------------------------------------------------------------|
G|-6-------------------------------------------------------------------------|
D|-6-(x3)--6-(x3)--6-(x2)----------------------------------------------------|
A|-4-------3-------4---------------------------------------------------------|
E|---------------------------------------------------------------------------|

Bridge (keep strumming this chord)
e|---------------------------------------------------------------------------|
B|---------------------------------------------------------------------------|
G|-8-------------------------------------------------------------------------|
D|-8-------------------------------------------------------------------------|
A|-6-------------------------------------------------------------------------|
E|---------------------------------------------------------------------------|

Then repeat everything else as it goes.
Tap to rate this tab
# A B C D E F G H I J K L M N O P Q R S T U V W X Y Z