Song name
# A B C D E F G H I J K L M N O P Q R S T U V W X Y Z

Offspring - Days Go By tab

Title:  DAYS GO BY
Artist: THE OFFSPRING
Album:  DAYS GO BY
Year:   2012

LEGEND:

(/) Slide Up  
(\) Slide Down  
(h) Hammer On  
(p) Pull Off  
(b) Bend 
(r) Release 
(v) Vibrato

Tuning: STANDARD

Intro A (0:01)

E|-----------|  *The D5 chords in the intro are played by the rythm guitar.
B|-----------|   I put in the brackets only the D5 chords you can play WHILE 
G|-----------|   doing the lead guitar part, so there are a few D5 chords 
D|-(7)*-(7)*-|   that are not written in the tab but you can easily hear
A|-(7)*-(7)*-|   them if you listen to the intro.
E|-(5)*-(5)*-|

(0:02)
E|-------------------------------|---------------------------------|-
B|-------------------------------|---------------------------------|-
G|---7-6---6---------------------|---7-6---6-------9--9--(7)*-(7)*-|-
D|-----------9---9-7---7-6-7-9-7-|-----------9-7-9-------(7)*-(7)*-|-
A|-7-----7-----7-----7-----------|-7-----7---------------(5)*-(5)*-|-
E|-------------------------------|---------------------------------|-

(0:08)
E|-------------------------------|---------------------------------|-
B|-------------------------------|---------------------------------|-
G|---7-6---6---------------------|---7-6---6-------9--9--(7)*-(7)*-|-
D|-----------9---9-7---7-6-7-9-7-|-----------9-7-9-------(7)*-(7)*-|-
A|-7-----7-----7-----7-----------|-7-----7---------------(5)*-(5)*-|-
E|-------------------------------|---------------------------------|-

Intro B (0:15) and repeated at (0:28)
Lead Guitar

E|-------------------------------|----------------------------|-
B|-------------------------------|----------------------------|-
G|-------9----7----6-------------|-------9----7----6----------|-
D|-7-9----------------6-7-6------|-7-9----------------6-7-6---|-
A|-----7----7----7----------7----|-----7----7----7----------7-|-
E|-------------------------------|----------------------------|-


E|-------------------------------|---------------------------------|-
B|-------------------------------|---------------------------------|-
G|-------9----7----6-------------|--9-9-9-9-9-9-9-9-9-9-9-9--7--7--|-
D|-7-9-----------------6-7-9-7-6-|--9-9-9-9-9-9-9-9-9-9-9-9--7--7--|-
A|-----7----7----7---------------|--7-7-7-7-7-7-7-7-7-7-7-7--5--5--|-
E|-------------------------------|---------------------------------|-

Intro B (0:15) and repeated at (0:28)
Rythm Guitar

E|--------------------------------|-----------------------------------|
B|--------------------------------|-----------------------------------|
G|-9-9-9-9-9-9-9-9-7-7-7-7-7-7-7-7|-----------------9-9-9-9-9-9--7--7-|
D|-9-9-9-9-9-9-9-9-7-7-7-7-7-7-7-7|-7-7-7-7-7-7-7-7-9-9-9-9-9-9--7--7-|
A|-7-7-7-7-7-7-7-7-5-5-5-5-5-5-5-5|-7-7-7-7-7-7-7-7-7-7-7-7-7-7--5--5-|
E|--------------------------------|-5-5-5-5-5-5-5-5-------------------|

E|--------------------------------|-----------------------------------|
B|--------------------------------|-----------------------------------|
G|-9-9-9-9-9-9-9-9-7-7-7-7-7-7-7-7|-----------------9-9-9-9-9-9--7--7-|
D|-9-9-9-9-9-9-9-9-7-7-7-7-7-7-7-7|-7-7-7-7-7-7-7-7-9-9-9-9-9-9--7--7-|
A|-7-7-7-7-7-7-7-7-5-5-5-5-5-5-5-5|-7-7-7-7-7-7-7-7-7-7-7-7-7-7--5--5-|
E|--------------------------------|-5-5-5-5-5-5-5-5-------------------|




VERSE (0:41)

E5
Run to the light
         D5
It won't save you tonight
        A5
All our yesterdays
                     E5  
Are pictures lost in time

(0:53)

E5
Never enough
       D5
Towers crumble to dust
        A5
Looking back on
                   E5
The moments of our lives

CHORUS (1:04)
         D5
All your anger
         A5
All your hurt
        E5             B5
Doesn't matter in the end
      D5      A5
Those days go by
       E5
And we all start again

(1:17)
         D5
What you had
             A5
And what you lost
            E5              B5
They're all memories in the wind
      D5      A5
Those days go by         
      E5**                  
And we all start again      

**At the change of chord from A5 to D5 in the last line
  (at the word "ALL") you have to start doing the intro B,
  if you're playing the lead guitar.


Intro B (1:27)
Lead Guitar

E|-------------------------------|----------------------------|-
B|-------------------------------|----------------------------|-
G|-------9----7----6-------------|-------9----7----6----------|-
D|-7-9----------------6-7-6------|-7-9----------------6-7-6---|-
A|-----7----7----7----------7----|-----7----7----7----------7-|-
E|-------------------------------|----------------------------|-


E|-------------------------------|---------------------------------|-
B|-------------------------------|---------------------------------|-
G|-------9----7----6-------------|--9-9-9-9-9-9-9-9-9-9-9-9--7--7--|-
D|-7-9-----------------6-7-9-7-6-|--9-9-9-9-9-9-9-9-9-9-9-9--7--7--|-
A|-----7----7----7---------------|--7-7-7-7-7-7-7-7-7-7-7-7--5--5--|-
E|-------------------------------|---------------------------------|-

Intro B (1:27)
Rythm Guitar

E|--------------------------------|-----------------------------------|
B|--------------------------------|-----------------------------------|
G|-9-9-9-9-9-9-9-9-7-7-7-7-7-7-7-7|-----------------9-9-9-9-9-9--7--7-|
D|-9-9-9-9-9-9-9-9-7-7-7-7-7-7-7-7|-7-7-7-7-7-7-7-7-9-9-9-9-9-9--7--7-|
A|-7-7-7-7-7-7-7-7-5-5-5-5-5-5-5-5|-7-7-7-7-7-7-7-7-7-7-7-7-7-7--5--5-|
E|--------------------------------|-5-5-5-5-5-5-5-5-------------------|

E|--------------------------------|-----------------------------------|
B|--------------------------------|-----------------------------------|
G|-9-9-9-9-9-9-9-9-7-7-7-7-7-7-7-7|-----------------9-9-9-9-9-9--7--7-|
D|-9-9-9-9-9-9-9-9-7-7-7-7-7-7-7-7|-7-7-7-7-7-7-7-7-9-9-9-9-9-9--7--7-|
A|-7-7-7-7-7-7-7-7-5-5-5-5-5-5-5-5|-7-7-7-7-7-7-7-7-7-7-7-7-7-7--5--5-|
E|--------------------------------|-5-5-5-5-5-5-5-5-------------------|

VERSE (1:40)
E5
Stars still burn bright
        D5
Seasons change overnight
      A5
As we find our way
                        E5  
The times they come and go

(1:53)
E5
Look back in love
          D5
A new day rises above
       A5
With a wind that comes
                  E5
To carry you back home

CHORUS (2:03)
         D5
All your anger
         A5
All your hurt
        E5            B5
Doesn't matter in the end
      D5      A5
Those days go by
       E5
And we all start again

(2:16)
         D5
What you had
             A5
And what you lost
            E5              B5
They're all memories in the wind
      D5      A5
Those days go by                       
       E5                             
And we all start again***   ***Now you have to repeat the intro A and B.     
                                        
Intro A (2:29)

E|---------|-  
B|---------|-   
G|---------|-   
D|-(7)-(7)-|-   
A|-(7)-(7)-|-   
E|-(5)-(5)-|-

(2:30)
E|-------------------------------|-------------------------------|-
B|-------------------------------|-------------------------------|-
G|---7-6---6---------------------|---7-6---6-------9--9--(7)-(7)-|-
D|-----------9---9-7---7-6-7-9-7-|-----------9-7-9-------(7)-(7)-|-
A|-7-----7-----7-----7-----------|-7-----7---------------(5)-(5)-|-
E|-------------------------------|-------------------------------|-

(2:36)
E|-------------------------------|-------------------------------|-
B|-------------------------------|-------------------------------|-
G|---7-6---6---------------------|---7-6---6-------9--9--(7)-(7)-|-
D|-----------9---9-7---7-6-7-9-7-|-----------9-7-9-------(7)-(7)-|-
A|-7-----7-----7-----7-----------|-7-----7---------------(5)-(5)-|-
E|-------------------------------|-------------------------------|-

Intro B (2:42) and repeated at (2:52)
Lead Guitar
  "HERE" (see below)
E|-------------------------------|----------------------------|-
B|-------------------------------|----------------------------|-
G|-------9----7----6-------------|-------9----7----6----------|-
D|-7-9----------------6-7-6------|-7-9----------------6-7-6---|-
A|-----7----7----7----------7----|-----7----7----7----------7-|-
E|-------------------------------|----------------------------|-

                                  ****
E|-------------------------------|---------------------------------|-
B|-------------------------------|---------------------------------|-
G|-------9----7----6-------------|--9-9-9-9-9-9-9-9-9-9-9-9--7--7--|-
D|-7-9-----------------6-7-9-7-6-|--9-9-9-9-9-9-9-9-9-9-9-9--7--7--|-
A|-----7----7----7---------------|--7-7-7-7-7-7-7-7-7-7-7-7--5--5--|-
E|-------------------------------|---------------------------------|-

****This chords aren't played the first time so you have to skip them
    and return "HERE". The second time play the whole INTRO B.

Intro B (2:42) and repeated at (2:52)
Rythm Guitar
  "HERE" (see over)
E|--------------------------------|-----------------------------------|
B|--------------------------------|-----------------------------------|
G|-9-9-9-9-9-9-9-9-7-7-7-7-7-7-7-7|-----------------9-9-9-9-9-9--7--7-|
D|-9-9-9-9-9-9-9-9-7-7-7-7-7-7-7-7|-7-7-7-7-7-7-7-7-9-9-9-9-9-9--7--7-|
A|-7-7-7-7-7-7-7-7-5-5-5-5-5-5-5-5|-7-7-7-7-7-7-7-7-7-7-7-7-7-7--5--5-|
E|--------------------------------|-5-5-5-5-5-5-5-5-------------------|

                                   ****
E|--------------------------------|-----------------------------------|
B|--------------------------------|-----------------------------------|
G|-9-9-9-9-9-9-9-9-7-7-7-7-7-7-7-7|-----------------9-9-9-9-9-9--7--7-|
D|-9-9-9-9-9-9-9-9-7-7-7-7-7-7-7-7|-7-7-7-7-7-7-7-7-9-9-9-9-9-9--7--7-|
A|-7-7-7-7-7-7-7-7-5-5-5-5-5-5-5-5|-7-7-7-7-7-7-7-7-7-7-7-7-7-7--5--5-|
E|--------------------------------|-5-5-5-5-5-5-5-5-------------------|  

CHORUS (3:04)
         D5
All your anger
         A5
All your hurt
        E5             B5
Doesn't matter in the end
      D5      A5
Those days go by
       E5
And we all start again

(3:16)
         D5
What you had
             A5
And what you lost
            E5              B5
They're all memories in the wind
      D5      A5
Those days go by                       
       E5                             
And we all start again   

(3:29)
         D5  A5
What you had  
             E5  B5
and what you lost
         D5  A5
What you had  
             E5  B5
and what you lost
      D5      A5    E5
Those days go by
      D5      A5    E5
Those days go by

END

|| Please rate and comment, SEND CORRECTIONS: ||         
|| let's make together a better tab,          ||
|| send english corrections: i'm italian      || 
|| so maybe i've done some mistakes.          ||
                                                        
Tap to rate this tab
# A B C D E F G H I J K L M N O P Q R S T U V W X Y Z