Song name
# A B C D E F G H I J K L M N O P Q R S T U V W X Y Z

Offspring - Self Esteem tab

All credits for these tabs goes to Offspringtabber, I simply laid them out in a 
fashion I found more desirable, as well as fixing one mistake on the amount of 
times you play verse pt.2 after the first chorus.

Standard Tuning: EBGDAE

Intro

e---------------------------|
B---------------------------|
G---------------------------|
D---------10-10-5-5-5-5-----| X2
A-7-7-7-7-8--8--3-3-3-3-5-5-|
E-5-5-5-5---------------3-3-|


Intro Pt.2
e-------------------------------|
B-------------------------------|
G-------------------------------|
D-------------------------------| X1
A-3-3-3-3-3-3-3-3-3-3-3-5-5-5-5-|
E-1-1-1-1-1-1-1-1-1-1-1-3-3-3-3-|


Verse Pt.1
e------------|
B------------|
G-7-7----7-7-|
D-5-5----5-5-| X1 - Play note twice when it comes to it, let first note ring for a moment
A------------|
E------------|


Verse Pt.2
e-----------------------------------------|
B-----------------------------------------|
G-----------------------------------------|
D---------------------5-5-5-5-5-----------| X4 - Play palm muted up until halfway through 4th
A-7-7-7-7-7-3-3-3-3-3-3-3-3-3-3-5-5-5-5-5-|
E-5-5-5-5-5-1-1-1-1-1-----------3-3-3-3-3-|


Chorus, same as intro
e---------------------------|
B---------------------------|
G---------------------------|
D---------10-10-5-5-5-5-----| X4
A-7-7-7-7-8--8--3-3-3-3-5-5-|
E-5-5-5-5---------------3-3-|


Verse Pt.2
e-----------------------------------------|
B-----------------------------------------|
G-----------------------------------------|
D---------------------5-5-5-5-5-----------| x4  Play 1st and 2nd muted, un-mute on 3rd
A-7-7-7-7-7-3-3-3-3-3-3-3-3-3-3-5-5-5-5-5-|
E-5-5-5-5-5-1-1-1-1-1-----------3-3-3-3-3-|


Chorus
e---------------------------|
B---------------------------|
G---------------------------|
D---------10-10-5-5-5-5-----| X4
A-7-7-7-7-8--8--3-3-3-3-5-5-|
E-5-5-5-5---------------3-3-|


Bridge Pt.1
e-------------------------|
B-------------------------|
G-------------------------|
D-7-7-7-7-3-3---------5-5-| x6
A-5-5-5-5-1-1-3-3-3-3-3-3-|
E-------------1-1-1-1-----|


Bridge Pt.2
e-----------------------------------------------------|
B-----------------------------------------------------|
G-----------------------------------------------------|
D-7-7-7-7-3-3-5-5-5-5---------------------------------| x1  Mute halfway through, on 1,3
A-5-5-5-5-1-1-3-3-3-3-5-5-3-3-3-3-3-3-3-7-7-7-7-7-7-7-|	  and unmute on 5,7
E---------------------3-3-1-1-1-1-1-1-1-5-5-5-5-5-5-5-|


Verse Pt.1
e------------|
B------------|
G-7-7----7-7-|
D-5-5----5-5-| X1 - Play note twice when it comes to it, let first note ring for a moment
A------------|
E------------|


Verse Pt.2
e-----------------------------------------|
B-----------------------------------------|
G-----------------------------------------|
D---------------------5-5-5-5-5-----------| X4 - Play palm muted up until halfway through 4th
A-7-7-7-7-7-3-3-3-3-3-3-3-3-3-3-5-5-5-5-5-|
E-5-5-5-5-5-1-1-1-1-1-----------3-3-3-3-3-|


Chorus
e---------------------------|
B---------------------------|
G---------------------------|
D---------10-10-5-5-5-5-----| X4
A-7-7-7-7-8--8--3-3-3-3-5-5-|
E-5-5-5-5---------------3-3-|


Bridge Pt.1
e-------------------------|
B-------------------------|
G-------------------------|
D-7-7-7-7-3-3---------5-5-| x6
A-5-5-5-5-1-1-3-3-3-3-3-3-|
E-------------1-1-1-1-----|


Bridge Pt.2
e-----------------------------------------------------|
B-----------------------------------------------------|
G-----------------------------------------------------|
D-7-7-7-7-3-3-5-5-5-5---------------------------------| x1  Mute halfway through, on 1,3
A-5-5-5-5-1-1-3-3-3-3-5-5-3-3-3-3-3-3-3-7-7-7-7-7-7-7-|	  and unmute on 5,7
E---------------------3-3-1-1-1-1-1-1-1-5-5-5-5-5-5-5-|


Outro
e---
B---
G--- Repeat until song end
D---
A-7-
E-5-

-----------------------------

Song Order:
Intro/Choras x2
Intro pt.2 x1
Verse pt.1 x1
Verse pt.2 x4
Intro/Choras x4
Verse pt.2 x4
Intro/Choras x4
Bridge pt.1 x6
Bridge pt.2 x1
Verse pt.1 x1
Verse pt.2 x4
Intro/Choras x4
Bridge pt.1 x6
Bridge pt.2 x1
Outro x1
Tap to rate this tab
# A B C D E F G H I J K L M N O P Q R S T U V W X Y Z