Song name
# A B C D E F G H I J K L M N O P Q R S T U V W X Y Z

Offspring - Ixnay Intermission tab

Transcribed by: AMERICAN JeSuS (canbil@yahoo.com for all your comments etc.)
An easy but funny one from Ixnay....Here it is....
-------------|-----------|------------|----------|----------------------------
-------------|-----------|------------|----------|----------------------------
-------------|-----------|------------|----------|----------------------------
-6----3-5---3|-6-6-6-3-5-|-5-----3----|-5-5-5---3|----------------------------
-------------|-----------|-----6----6-|-------6--|----------------------------
-------------|-----------|------------|----------|----------------------------
 Welcome to Intermission...                                                   
-------------|-----------------|------|---------------------------------------
-------------|-----------------|------|---------------------------------------
-------------|-----------------|-5----|---------------------------------------
-6----3-5---3|---6-6-6-3-5-----|------|---------------------------------------
-------------|---------------6-|------|---------------------------------------
-------------|-----------------|------|---------------------------------------
                                Yeah..Intermission...                         
-------------|------------|---------------|----------|------------|-----------
-------------|------------|---------------|----------|------------|-----------
-5----2-4---2|---5-5-5-2-4|--4------2-----|-4-4-4---2|-5----2-4--2|-----------
-------------|------------|-------5------5|-------5--|------------|-----------
-------------|------------|---------------|----------|------------|-----------
-------------|------------|---------------|----------|------------|-----------
                                                                              
---------------|-----|---------------|-----------|--------------|-------------
---------------|--5--|--6----6-4---4-|-----------|-4----4-------|-------------
--5-5-5-2-4----|-----|---------------|--6----6-5-|--------6----6|-------------
--------------5|-----|---------------|-----------|--------------|-------------
---------------|-----|---------------|-----------|--------------|-------------
---------------|-----|---------------|-----------|--------------|-------------
                                                                              
-----------|-------------|-------------|--------------------------------------
-----------|-------------|-------------|--------------------------------------
--5-----5-3|-------------|------------5|--------------------------------------
-----------|-6---3-5----3|-6-6-6-3-5---|-6------------------------------------
-----------|-------------|-------------|--------------------------------------
-----------|-------------|-------------|--------------------------------------
                                            then are you ready for ALL I WANT??
						Yeahyeahyeah!!!
Tap to rate this tab
# A B C D E F G H I J K L M N O P Q R S T U V W X Y Z