Song name
# A B C D E F G H I J K L M N O P Q R S T U V W X Y Z

Offspring - Hand Grenades tab

Help us improve GuitareTab! Take a short survey!
Song: Hand Grenades
Artist: The Offspring
Album: Short Music for Short People (Compilation)
As tabbed by Joe Muggah
joe_the_man3@hotmail.com

Riff
e----9-----------------------------------------------------
B----9-----------------------------------------------------
G---10-----------------------------------------------------
D---11-----------------------------------------------------
A---11-----------------------------------------------------
E----9-----------------------------------------------------

Verse
e----------------------------------------------------------
B----------------------------------------------------------
G----------------------------------------11-11-11-11-11-11-
D--11-11-11-11-11-11--11-11-11-11-11-11--11-11-11-11-11-11-
A--11-11-11-11-11-11--11-11-11-11-11-11---9--9--9--9--9--9-
E---9--9--9--9--9--9---9--9--9--9--9--9--------------------

(continued)
e----------------------------------------------------------
B----------------------------------------------------------
G--10-11-13-13-13------------------------------------------
D--10-11-13-13-13--11-11-11-11-----------------------------
A---8--9-11-11-11--11-11-11-11-----------------------------
E-------------------9--9--9--9-----------------------------

Chorus (palm muted)
e----------------------------------------------------------
B----------------------------------------------------------
G------------------------------------------8-9-9-9-9-9-9-9-
D--11-11-11-11-11-11-11-11-----------------8-9-9-9-9-9-9-9-
A--11-11-11-11-11-11-11-11-(all x 4 then)--6-7-7-7-7-7-7-7-
E---9--9--9--9--9--9--9--9---------------------------------

(continued)
e----------------------------------------------------------
B----------------------------------------------------------
G--11-11-11-11--13-13-13-13--------------------------------
D--11-11-11-11--13-13-13-13--------------------------------
A---9--9--9--9--11-11-11-11--------------------------------
E----------------------------------------------------------

Riff
Verse
Chorus
Verse
Riff
Related for Hand Grenades tab