Song name
# A B C D E F G H I J K L M N O P Q R S T U V W X Y Z

Offspring - Hit That tab

Song:Hit That
Artist:The Offspring
Album:Splinter(Track 4)
Guitarists:Dexter Holland
           Greg K(Bass)
           Noodles
Tabber:tjm14
Address:soad__rulz_1@hotmail.com

This is a great song by The Offspring!!
This is my first tab, and has the normal guitar,
bass guitar, and keyboard entwined in the 1 tab.
im only 14, so if ive dun something wrong, or you
want to congratulate me, jus email me:
oh_mr_sexy_boy@hotmail.com

in the chorus, (im on a role...), you can actually hear Dexter or Noodles
sliding, thats why i have put it in there. The crosses (x) might also be
D|-2-2-2-
A|-2-2-2-
E|-0-0-0- palm muted, but im not sure

just before the second verse(what was a family...) its full of weird sound effects,
so if u find out what they are, tell me

this tab sounds 100% correct, rhythmically and musically

enjoy

  ^   ^   ^   ^    ^   ^   ^   ^    ^   ^   ^   ^    ^   ^   ^   ^   
e|----------------|----------------|----------------|----------------|
B|----------------|----------------|----------------|----------------|
G|----------------|----------------|----------------|----------------|   GUITAR
D|5-------7-------|2---2---2-------|2-2-------------|----------------|
A|5-------7-------|2---2---2-------|2-2-------------|----------------|
E|3-------5-------|0---0---0-------|0-0-------------|----------------|
  
e|----------------|----------------|----------------|----------------|
B|----------------|----------0-3-0-|3-5---0---0-3-0-|3-5---0---0-3-0-|
G|----------------|----------------|----------------|----------------|   KEYBOARD
D|----------------|----------------|----------------|----------------|
A|----------------|----------------|----------------|----------------|
E|----------------|----------------|----------------|----------------|

G|----------------|----------------|----------------|----------------|   
D|----------------|----------------|----------------|----------------|   BASS
A|----------------|----------------|-5-7-5-7-5-7-5-7|-5-7-5-7--------|
E|3-------5-------|0---0---0-------|0---0---0---0---|0---0---7-6-5-/3|

--------------------------------------------------------------------------------------
  ^   ^   ^   ^    ^   ^   ^   ^    ^   ^   ^   ^    ^   ^   ^   ^
e|----------------|----------------|----------------|----------------|
B|----------------|----------------|----------------|----------------|
G|----------------|----------------|----------------|----------------|
D|2-2-------------|----------------|2-2-------------|----------------|
A|2-2-------------|----------------|2-2-------------|----------------|
E|0-0-------------|----------------|0-0-------------|----------------|

e|--------3---3---|----------------|----------------|----------------|
B|3-5---5---------|5---------0-3-0-|3-5---0---0-3-0-|3-5---0---0-3-0-|
G|----------------|----------------|----------------|----------------|
D|----------------|----------------|----------------|----------------|
A|----------------|----------------|----------------|----------------|
E|----------------|----------------|----------------|----------------|

G|----------------|----------------|----------------|----------------|
D|----------------|----------------|----------------|----------------|
A|-5-7-5-7-5-7-5-7|-5-7-5-7--------|-5-7-5-7-5-7-5-7|-5-7-5-7--------|
E|0---0---0---0---|0---0---7-6-5-3-|0---0---0---0---|0---0---7-6-5-/3|

--------------------------------------------------------------------------------------
  ^   ^   ^   ^    ^   ^   ^   ^    ^   ^   ^   ^    ^   ^   ^   ^
e|----------------|----------------|----------------|----------------|
B|----------------|----------------|----------------|----------------|
G|----------------|----------------|----------------|----------------|
D|2-2-------------|----------------|----------------|----------------|
A|2-2-------------|----------------|----------------|----------------|
E|0-0-------------|----------------|----------------|----------------|

e|--------3---3---|----------------|----------7-5-3-|5-3-------3-5-3-|
B|3-5---5---------|5---------------|----------------|----------------|
G|----------------|----------------|----------------|----------------|
D|----------------|----------------|----------------|----------------|
A|----------------|----------------|----------------|----------------|
E|----------------|----------------|----------------|----------------|

G|----------------|----------------|----------------|----------------|
D|----------------|----------------|----------------|----------------|
A|-5-7-5-7-5-7-5-7|-5-7-5-7--------|-5-7-5-7-5-7-5-7|-5-7-5-7--------|
E|0---0---0---0---|0---0---7-6-5-3-|0---0---0---0---|0---0---7-6-5-/3|
                                      The winds of fortune...         

--------------------------------------------------------------------------------------
  ^   ^   ^   ^    ^   ^   ^   ^    ^   ^   ^   ^    ^   ^   ^   ^
e|----------------|----------------|----------------|----------------|
B|----------------|----------------|----------------|----------------|
G|----------------|----------------|----------------|----------------|
D|----------------|----------------|----------------|----------------|
A|----------------|----------------|----------------|----------------|
E|----------------|----------------|----------------|----------------|

e|----------------|----------------|----------------|----------------|
B|5---------7-5-3-|5-3-------3-5-3-|5---------7-5-3-|5-3-------3-5-3-|
G|----------------|----------------|----------------|----------------|
D|----------------|----------------|----------------|----------------|
A|----------------|----------------|----------------|----------------|
E|----------------|----------------|----------------|----------------|

G|----------------|----------------|----------------|----------------|
D|----------------|----------------|----------------|----------------|
A|-5-7-5-7-5-7-5-7|-5-7-5-7--------|-5-7-5-7-5-7-5-7|-5-7-5-7--------|
E|0---0---0---0---|0---0---7-6-5-3-|0---0---0---0---|0---0---7-6-5-/3|
            she had to get out...		she had a kid now...
--------------------------------------------------------------------------------------
  ^   ^   ^   ^    ^   ^   ^   ^    ^   ^   ^   ^    ^   ^   ^   ^
e|----------------|----------------|----------------|----------------|
B|----------------|----------------|----------------|----------------|
G|----------------|----------------|--------9-9-9-/-|--------9-9-9-/-|
D|3---------------|5---------------|2-2-2-2-9-9-9-/-|2-2-2-2-9-9-9-/-|
A|3---------------|5---------------|2-2-2-2-7-7-7-/-|2-2-2-2-7-9-9-/-|
E|5---------------|7---------------|0-0-0-0---------|0-0-0-0---------|

e|----------------|----------------|----------------|----------------|
B|5---------7-5-3-|5-3-------3-5-3-|5---------------|----------------|
G|----------------|----------------|----------------|----------------|
D|----------------|----------------|----------------|----------------|
A|----------------|----------------|----------------|----------------|
E|----------------|----------------|----------------|----------------|

G|----------------|----------------|----------------|----------------|
D|--5---5---5---5-|--7---7---7---7-|----------------|----------------|
A|----------------|----------------|--7---7---7---7-|--7---7---7---7-|
E|3---3---3---3---|5---5---5---5---|0---0---0---0---|0---0---0---0---|
  that baby daddys.....fun he sayin im on a role     with all the... 
--------------------------------------------------------------------------------------
  ^   ^   ^   ^    ^   ^   ^   ^    ^   ^   ^   ^    ^   ^   ^   ^
e|----------------|----------------|----------------|----------------|
B|----------------|----------------|----------------|----------------|
G|----------------|----------------|--------9-9-9-/-|--------9-9-9-/-|
D|5-5-5-4-5-5-5-5-|7-7-7-5-7-7-7-7-|2-2-2-2-9-9-9-/-|2-2-2-2-9-9-9-/-|
A|5-5-5-4-5-5-5-5-|7-7-7-5-7-7-7-7-|2-2-2-2-7-7-7-/-|2-2-2-2-7-7-7-/-|
E|3-3-3-2-3-3-3-3-|5-5-5-3-5-5-5-5-|0-0-0-0---------|0-0-0-0---------|

e|----------------|----------------|----------------|----------------|
B|----------------|----------------|----------------|----------------|
G|----------------|----------------|----------------|----------------|
D|----------------|----------------|----------------|----------------|
A|----------------|----------------|----------------|----------------|
E|----------------|----------------|----------------|----------------|

G|----------------|----------------|----------------|----------------|
D|--5---5---5---5-|--7---7---7---7-|----------------|----------------|
A|----------------|----------------|--7---7---7---7-|--7---7---7---7-|
E|3---3---3---3---|5---5---5---5---|0---0---0---0---|0---0---0---0---|
  his baby mama    ...slow he sayin im on a role     with all the...
--------------------------------------------------------------------------------------
  ^   ^   ^   ^    ^   ^   ^   ^    ^   ^   ^   ^    ^   ^   ^   ^
e|----------------|----------------|----------------|----------------|
B|----------------|----------------|----------------|----------------|
G|----------------|----------------|--------9-9-9-/-|--------9-9-9-/-|
D|5-5-5-4-5-5-5-5-|7-7-7-5-7-7-7-7-|2-2-2-2-9-9-9-/-|2-2-2-2-9-9-9-/-|
A|5-5-5-4-5-5-5-5-|7-7-7-5-7-7-7-7-|2-2-2-2-7-7-7-/-|2-2-2-2-7-7-7-/-|
E|3-3-3-2-3-3-3-3-|5-5-5-3-5-5-5-5-|0-0-0-0---------|0-0-0-0---------|

e|----------------|----------------|----------------|----------------|
B|----------------|----------------|----------------|----------------|
G|----------------|----------------|----------------|----------------|
D|----------------|----------------|----------------|----------------|
A|----------------|----------------|----------------|----------------|
E|----------------|----------------|----------------|----------------|

G|----------------|----------------|----------------|----------------|
D|--5---5---5---5-|--7---7---7---7-|----------------|----------------|
A|----------------|----------------|--7---7---7---7-|--7---7---7---7-|
E|3---3---3---3---|5---5---5---5---|0---0---0---0---|0---0---0---0---|
 ...wanna hit that ...hit that hit  all the world... with i say
--------------------------------------------------------------------------------------
  ^   ^   ^   ^    ^   ^   ^   ^    ^   ^   ^   ^    ^   ^   ^   ^
e|----------------|----------------|----------------|----------------|
B|----------------|----------------|----------------|----------------|
G|5-5-5-5-5-5-5-5-|----------------|----------------|----------------|
D|5-5-5-5-5-5-5-5-|7-7-7-7-7-7-7-7-|2-2-2-2-2-2-2-2-|4-4-4-4-4-4-4-4-|
A|3-3-3-3-3-3-3-3-|7-7-7-7-7-7-7-7-|2-2-2-2-2-2-2-2-|4-4-4-4-4-4-4-4-|
E|----------------|5-5-5-5-5-5-5-5-|0-0-0-0-0-0-0-0-|2-2-2-2-2-2-2-2-|

e|----------------|----------------|----------------|----------------|
B|----------------|----------------|----------------|----------------|
G|----------------|----------------|----------------|----------------|
D|----------------|----------------|----------------|----------------|
A|----------------|----------------|----------------|----------------|
E|----------------|----------------|----------------|----------------|

G|----------------|----------------|----------------|----------------|
D|--8---8---8---8-|--7---7---7---7-|----------------|--9---9---9---9-|
A|----------------|----------------|--7---7---7---7-|----------------|
E|10--10--10--10--|5---5---5---5---|0---0---0---0---|7---7---7---7---|
  consequences are a lot but hey    thats the way it thats the way things  
--------------------------------------------------------------------------------------
  ^   ^   ^   ^    ^   ^   ^   ^    ^   ^   ^   ^    ^   ^   ^   ^                                   -pm-
e|----------------|----------------|----------------|----------------|
B|----------------|----------------|----------------|----------------|
G|----------------|----------------|----------------|----------------|   
D|5-------7-------|2---2---2-------|2-2-------------|----------------|
A|5-------7-------|2---2---2-------|2-2-------------|----------------|
E|3-------5-------|0---0---0-------|0-0-------------|----------------|

e|----------------|----------------|----------------|----------------|
B|----------------|----------0-3-0-|3-5---0---0-3-0-|3-5---0---0-3-0-|
G|----------------|----------------|----------------|----------------|   
D|----------------|----------------|----------------|----------------|
A|----------------|----------------|----------------|----------------|
E|----------------|----------------|----------------|----------------|

G|----------------|----------------|----------------|----------------|   
D|----------------|----------------|----------------|----------------|   
A|----------------|----------------|-5-7-5-7-5-7-5-7|-5-7-5-7--------|
E|3-------5-------|0---0---0-------|0---0---0---0---|0---0---7-6-5-/3|
  go......ooo      oi  oi  oi
--------------------------------------------------------------------------------------
  ^   ^   ^   ^    ^   ^   ^   ^    ^   ^   ^   ^    ^   ^   ^   ^
e|----------------|----------------|----------------|----------------|
B|----------------|----------------|----------------|----------------|
G|----------------|----------------|----------------|----------------|
D|2-2-------------|----------------|2-2-------------|----------------|
A|2-2-------------|----------------|2-2-------------|----------------|
E|0-0-------------|----------------|0-0-------------|----------------|

e|--------3---3---|----------------|----------------|----------------|
B|3-5---5---------|5---------0-3-0-|3-5---0---0-3-0-|3-5---0---0-3-0-|
G|----------------|----------------|----------------|----------------|
D|----------------|----------------|----------------|----------------|
A|----------------|----------------|----------------|----------------|
E|----------------|----------------|----------------|----------------|

G|----------------|----------------|----------------|----------------|
D|----------------|----------------|----------------|----------------|
A|-5-7-5-7-5-7-5-7|-5-7-5-7--------|-5-7-5-7-5-7-5-7|-5-7-5-7--------|
E|0---0---0---0---|0---0---7-6-5-3-|0---0---0---0---|0---0---7-6-5-/3|

----------------------------------------------------------------------
  ^   ^   ^   ^    ^   ^   ^   ^    ^   ^   ^   ^    ^   ^   ^   ^
e|----------------|----------------|----------------|----------------|
B|----------------|----------------|----------------|----------------|
G|----------------|----------------|----------------|----------------|
D|2-2-------------|----------------|----------------|----------------|
A|2-2-------------|----------------|----------------|----------------|
E|0-0-------------|----------------|----------------|----------------|

e|--------3---3---|----------------|----------------|----------------|
B|3-5---5---------|5---------0-3-0-|3-5---0---0-3-0-|3-5---0---0-3-0-|
G|----------------|----------------|----------------|----------------|
D|----------------|----------------|----------------|----------------|
A|----------------|----------------|----------------|----------------|
E|----------------|----------------|----------------|----------------|
    				    
G|----------------|----------------|----------------|----------------|
D|----------------|----------------|----------------|----------------|
A|-5-7-5-7-5-7-5-7|-5-7-5-7--------|----------------|----------------|
E|0---0---0---0---|0---0---7-6-5-3-|----------------|----------------|
           			    what was a family is now a shell
----------------------------------------------------------------------
  ^   ^   ^   ^    ^   ^   ^   ^    ^   ^   ^   ^    ^   ^   ^   ^
e|----------------|----------------|----------------|----------------|
B|----------------|----------------|----------------|----------------|
G|----------------|----------------|----------------|----------------|
D|----------------|----------------|----------------|----------------|
A|----------------|----------------|----------------|----------------|
E|----------------|----------------|----------------|----------------|

e|--------3-------|----------------|----------------|----------------|
B|3-5---5---------|5---------0-3-0-|3-5---0---0-3-0-|3-5---0---0-3-0-|
G|----------------|----------------|----------------|----------------|
D|----------------|----------------|----------------|----------------|
A|----------------|----------------|----------------|----------------|
E|----------------|----------------|----------------|----------------|

G|----------------|----------------|----------------|----------------|
D|----------------|----------------|----------------|----------------|
A|----------------|----------------|-5-7-5-7-5-7-5-7|-5-7-5-7--------|
E|----------------|--------7-6-5-3-|0---0---0---0---|0---0---7-6-5-/3|
  were raisin kids... themselves    sex is a weapon  its like a drug
----------------------------------------------------------------------
  ^   ^   ^   ^    ^   ^   ^   ^    ^   ^   ^   ^    ^   ^   ^   ^
e|----------------|----------------|----------------|----------------|
B|----------------|----------------|----------------|----------------|
G|----------------|----------------|--------9-9-9-/-|--------9-9-9-/-|
D|----------------|----------------|2-2-2-2-9-9-9-/-|2-2-2-2-9-9-9-/-|
A|----------------|----------------|2-2-2-2-7-7-7-/-|2-2-2-2-7-7-7-/-|
E|----------------|----------------|0-0-0-0---------|0-0-0-0---------|

e|--------3---3---|----------------|----------------|----------------|
B|3-5---5---------|5---------------|----------------|----------------|
G|----------------|----------------|----------------|----------------|
D|----------------|----------------|----------------|----------------|
A|----------------|----------------|----------------|----------------|
E|----------------|----------------|----------------|----------------|

G|----------------|----------------|----------------|----------------|
D|--5---5---5---5-|--7---7---7---7-|----------------|----------------|
A|----------------|----------------|--7---7---7---7-|--7---7---7---7-|
E|3---3---3---3---|5---5---5---5---|0---0---0---0---|0---0---0---0---|
 ...rite into that...dug she sayin  im on the run    im chasin guys 4 fun
----------------------------------------------------------------------
  ^   ^   ^   ^    ^   ^   ^   ^    ^   ^   ^   ^    ^   ^   ^   ^
e|----------------|----------------|----------------|----------------|
B|----------------|----------------|----------------|----------------|
G|----------------|----------------|--------9-9-9-/-|--------9-9-9-/-|
D|5-5-5-4-5-5-5-5-|7-7-7-5-7-7-7-7-|2-2-2-2-9-9-9-/-|2-2-2-2-9-9-9-/-|
A|5-5-5-4-5-5-5-5-|7-7-7-5-7-7-7-7-|2-2-2-2-7-7-7-/-|2-2-2-2-7-7-7-/-|
E|3-3-3-2-3-3-3-3-|5-5-5-3-5-5-5-5-|0-0-0-0---------|0-0-0-0---------|

e|----------------|----------------|----------------|----------------|
B|----------------|----------------|----------------|----------------|
G|----------------|----------------|----------------|----------------|
D|----------------|----------------|----------------|----------------|
A|----------------|----------------|----------------|----------------|
E|----------------|----------------|----------------|----------------|

G|----------------|----------------|----------------|----------------|
D|--5---5---5---5-|--7---7---7---7-|----------------|----------------|
A|----------------|----------------|--7---7---7---7-|--7---7---7---7-|
E|3---3---3---3---|5---5---5---5---|0---0---0---0---|0---0---0---0---|
  her...daddy it...only 1 she sayin im on the run    im chasin guys 4 fun
----------------------------------------------------------------------
  ^   ^   ^   ^    ^   ^   ^   ^    ^   ^   ^   ^    ^   ^   ^   ^
e|----------------|----------------|----------------|----------------|
B|----------------|----------------|----------------|----------------|
G|----------------|----------------|--------9-9-9-/-|--------9-9-9-/-|
D|5-5-5-4-5-5-5-5-|7-7-7-5-7-7-7-7-|2-2-2-2-9-9-9-/-|2-2-2-2-9-9-9-/-|
A|5-5-5-4-5-5-5-5-|7-7-7-5-7-7-7-7-|2-2-2-2-7-7-7-/-|2-2-2-2-7-7-7-/-|
E|3-3-3-2-3-3-3-3-|5-5-5-3-5-5-5-5-|0-0-0-0---------|0-0-0-0---------|

e|----------------|----------------|----------------|----------------|
B|----------------|----------------|----------------|----------------|
G|----------------|----------------|----------------|----------------|
D|----------------|----------------|----------------|----------------|
A|----------------|----------------|----------------|----------------|
E|----------------|----------------|----------------|----------------|

G|----------------|----------------|----------------|----------------|
D|--5---5---5---5-|--7---7---7---7-|----------------|----------------|
A|----------------|----------------|--7---7---7---7-|--7---7---7---7-|
E|3---3---3---3---|5---5---5---5---|0---0---0---0---|0---0---0---0---|
  ...wanna hit that ...hit that hit  everybody's... with i say
----------------------------------------------------------------------
  ^   ^   ^   ^    ^   ^   ^   ^    ^   ^   ^   ^    ^   ^   ^   ^
e|----------------|----------------|----------------|----------------|
B|----------------|----------------|----------------|----------------|
G|5-5-5-5-5-5-5-5-|----------------|----------------|----------------|
D|5-5-5-5-5-5-5-5-|7-7-7-7-7-7-7-7-|2-2-2-2-2-2-2-2-|4-4-4-4-4-4-4-4-|
A|3-3-3-3-3-3-3-3-|7-7-7-7-7-7-7-7-|2-2-2-2-2-2-2-2-|4-4-4-4-4-4-4-4-|
E|----------------|5-5-5-5-5-5-5-5-|0-0-0-0-0-0-0-0-|2-2-2-2-2-2-2-2-|

e|----------------|----------------|----------------|----------------|
B|----------------|----------------|----------------|----------------|
G|----------------|----------------|----------------|----------------|
D|----------------|----------------|----------------|----------------|
A|----------------|----------------|----------------|----------------|
E|----------------|----------------|----------------|----------------|

G|----------------|----------------|----------------|----------------|
D|--8---8---8---8-|--7---7---7---7-|----------------|--9---9---9---9-|
A|----------------|----------------|--7---7---7---7-|----------------|
E|10--10--10--10--|5---5---5---5---|0---0---0---0---|7---7---7---7---|
   consequences are a lot but hey    thats the way it thats the way things
----------------------------------------------------------------------
  ^   ^   ^   ^    ^   ^   ^   ^    ^   ^   ^   ^    ^   ^   ^   ^
e|----------------|----------------|----------------|----------------|
B|----------------|----------------|----------------|----------------|
G|----------------|----------------|----------------|----------------|   
D|5-------7-------|2---2---2-------|2---2-----------|----------------|
A|5-------7-------|2---2---2-------|2---2-----------|----------------|
E|3-------5-------|0---0---0-------|0---0-----------|----------------|
      				    -p.m-
e|----------------|----------------|----------------|----------------|
B|----------------|----------------|----------------|----------------|
G|----------------|----------------|----------------|----------------|   
D|----------------|----------------|----------------|----------------|
A|----------------|----------------|----------------|----------------|
E|----------------|----------------|----------------|----------------|

G|----------------|----------------|----------------|----------------|   
D|----------------|----------------|----------------|----------------|   
A|----------------|----------------|----------------|----------------|
E|3-------5-------|0---0---0-------|----------------|----------------|
  go...   ooo      oi  oi  oiwell itwinds up broken up...a shame but a
----------------------------------------------------------------------
  ^   ^   ^   ^    ^   ^   ^   ^    ^   ^   ^   ^    ^   ^   ^   ^
e|----------------|----------------|----------------|----------------|
B|----------------|----------------|----------------|----------------|
G|----------------|----------------|----------------|----------------|   
D|2---2-----------|----------------|----------------|----------------|
A|2---2-----------|----------------|----------------|----------------|
E|0---0-----------|----------------|----------------|----------------|

e|----------------|----------------|----------------|----------------|
B|----------------|----------------|----------------|----------------|
G|----------------|----------------|----------------|----------------|   
D|----------------|----------------|----------------|----------------|
A|----------------|----------------|----------------|----------------|
E|----------------|----------------|----------------|----------------|

G|----------------|----------------|----------------|----------------|   
D|----------------|----------------|----------------|----------------|
A|----------------|----------------|-5-7-5-7-5-7-5-7|-5-7-5-7-5-7-5-7|
E|----------------|--------7-6-5-3-|0---0---0---0---|0---0---0---0---|
  why not take...everythings a game...stop hookin up... gonna change well 

----------------------------------------------------------------------
  ^   ^   ^   ^    ^   ^   ^   ^    ^   ^   ^   ^    ^   ^   ^   ^
e|----------------|----------------|----------------|----------------|
B|----------------|----------------|----------------|----------------|
G|----------------|----------------|--------9-9-9-/-|--------9-9-9-/-|
D|3---------------|5---------------|2-2-2-2-9-9-9-/-|2-2-2-2-9-9-9-/-|
A|3---------------|5---------------|2-2-2-2-7-7-7-/-|2-2-2-2-7-7-7-/-|
E|5---------------|7---------------|0-0-0-0---------|0-0-0-0---------|

e|----------------|----------------|----------------|----------------|
B|----------------|----------------|----------------|----------------|
G|----------------|----------------|----------------|----------------|
D|----------------|----------------|----------------|----------------|
A|----------------|----------------|----------------|----------------|
E|----------------|----------------|----------------|----------------|

G|----------------|----------------|----------------|----------------|
D|--5---5---5---5-|--7---7---7---7-|----------------|----------------|
A|----------------|----------------|--7---7---7---7-|--7---7---7---7-|
E|3---3---3---3---|5---5---5---5---|0---0---0---0---|0---0---0---0---|
  ..more hes tryin...buyin he says  im on a role with all the girls i know
----------------------------------------------------------------------
  ^   ^   ^   ^    ^   ^   ^   ^    ^   ^   ^   ^    ^   ^   ^   ^
e|----------------|----------------|----------------|----------------|
B|----------------|----------------|----------------|----------------|
G|----------------|----------------|--------9-9-9-/-|--------9-9-9-/-|
D|5-5-5-4-5-5-5-5-|7-7-7-5-7-7-7-7-|2-2-2-2-9-9-9-/-|2-2-2-2-9-9-9-/-|
A|5-5-5-4-5-5-5-5-|7-7-7-5-7-7-7-7-|2-2-2-2-7-7-7-/-|2-2-2-2-7-7-7-/-|
E|3-3-3-2-3-3-3-3-|5-5-5-3-5-5-5-5-|0-0-0-0---------|0-0-0-0---------|

e|----------------|----------------|----------------|----------------|
B|----------------|----------------|----------------|----------------|
G|----------------|----------------|----------------|----------------|
D|----------------|----------------|----------------|----------------|
A|----------------|----------------|----------------|----------------|
E|----------------|----------------|----------------|----------------|

G|----------------|----------------|----------------|----------------|
D|--5---5---5---5-|--7---7---7---7-|----------------|----------------|
A|----------------|----------------|--7---7---7---7-|--7---7---7---7-|
E|3---3---3---3---|5---5---5---5---|0---0---0---0---|0---0---0---0---|
  his baby mama...need 2 know he sayin im on a role...all the girls i know
----------------------------------------------------------------------
  ^   ^   ^   ^    ^   ^   ^   ^    ^   ^   ^   ^    ^   ^   ^   ^
e|----------------|----------------|----------------|----------------|
B|----------------|----------------|----------------|----------------|
G|----------------|----------------|--------9-9-9-/-|--------9-9-9-/-|
D|5-5-5-4-5-5-5-5-|7-7-7-5-7-7-7-7-|2-2-2-2-9-9-9-/-|2-2-2-2-9-9-9-/-|
A|5-5-5-4-5-5-5-5-|7-7-7-5-7-7-7-7-|2-2-2-2-7-7-7-/-|2-2-2-2-7-7-7-/-|
E|3-3-3-2-3-3-3-3-|5-5-5-3-5-5-5-5-|0-0-0-0---------|0-0-0-0---------|

e|----------------|----------------|----------------|----------------|
B|----------------|----------------|----------------|----------------|
G|----------------|----------------|----------------|----------------|
D|----------------|----------------|----------------|----------------|
A|----------------|----------------|----------------|----------------|
E|----------------|----------------|----------------|----------------|

G|----------------|----------------|----------------|----------------|
D|--5---5---5---5-|--7---7---7---7-|----------------|----------------|
A|----------------|----------------|--7---7---7---7-|--7---7---7---7-|
E|3---3---3---3---|5---5---5---5---|0---0---0---0---|0---0---0---0---|
 ...wanna hit that ...hit that hit  all the world... with i say
----------------------------------------------------------------------
  ^   ^   ^   ^    ^   ^   ^   ^    ^   ^   ^   ^    ^   ^   ^   ^
e|----------------|----------------|----------------|----------------|
B|----------------|----------------|----------------|----------------|
G|5-5-5-5-5-5-5-5-|----------------|----------------|----------------|
D|5-5-5-5-5-5-5-5-|7-7-7-7-7-7-7-7-|2-2-2-2-2-2-2-2-|4-4-4-4-4-4-4-4-|
A|3-3-3-3-3-3-3-3-|7-7-7-7-7-7-7-7-|2-2-2-2-2-2-2-2-|4-4-4-4-4-4-4-4-|
E|----------------|5-5-5-5-5-5-5-5-|0-0-0-0-0-0-0-0-|2-2-2-2-2-2-2-2-|

e|----------------|----------------|----------------|----------------|
B|----------------|----------------|----------------|----------------|
G|----------------|----------------|----------------|----------------|
D|----------------|----------------|----------------|----------------|
A|----------------|----------------|----------------|----------------|
E|----------------|----------------|----------------|----------------|

G|----------------|----------------|----------------|----------------|
D|--8---8---8---8-|--7---7---7---7-|----------------|--9---9---9---9-|
A|----------------|----------------|--7---7---7---7-|----------------|
E|10--10--10--10--|5---5---5---5---|0---0---0---0---|7---7---7---7---|
  consequences are a lot but hey    thats the way it thats the way things  
----------------------------------------------------------------------
  ^   ^   ^   ^    ^   ^   ^   ^   
e|----------------|----------------|
B|----------------|----------------|
G|----------------|----------------|
D|5-------7-------|2---2---2-------|
A|5-------7-------|2---2---2-------|
E|3-------5-------|0---0---0-------|

e|----------------|----------------|
B|----------------|----------------|
G|----------------|----------------|
D|----------------|----------------|
A|----------------|----------------|
E|----------------|----------------|

G|----------------|----------------|
D|----------------|----------------|
A|----------------|----------------|
E|3-------5-------|0---0---0-------|
  go......ooo      
Tap to rate this tab
# A B C D E F G H I J K L M N O P Q R S T U V W X Y Z