Song name
# A B C D E F G H I J K L M N O P Q R S T U V W X Y Z

Offspring - Lightning Rod tab

The Offspring
Lightning Rod

Intro Guitar 1
e|---------------------------------|
b|---------------------------------|
G|---------------------------------|(x8)
D|---------------------------------|
A|---------------------------------|
E|-1-1-1-1-1-1-1-1-1-1-1-1-1-1-1-1-|

play 2 of 8 through then guitar 2 joins in for the last 6

Intro Guitar 2
e|-------|
b|-------|
G|-------|(x6)(heavy echo)
D|-3--3--|
A|-3--3--|
E|-1--1--|

Verse 1
e|----------------------------------------------------|
b|----------------------------------------------------|
G|-10--10-10-10--10-10------------6-6-66-66-----------|(x2)
D|-10--10-10-10--10-10--8-8-88-88-6-6-66-66-3-3-33-33-|
A|-8---8--8--8---8--8---8-8-88-88-4-4-44-44-3-3-33-33-|
E|----------------------6-6-66-66-----------1-1-11-11-|

Chorus
e|-------------------------------|
b|-------------------------------|
G|-------------------8.----------|(x2)
D|-3--3--5--6--5--3--8.-let ring-|
A|-3--3--5--6--5--3--6.----------|
E|-1--1--3--4--3--1--------------|

|----------------------------------|
b|---------------------------------|
G|-------------------8--5--3--8--5-|(x1)
D|-3--3--5--6--5--3--8--5--3--8--5-|
A|-3--3--5--6--5--3--4--3--1--6--3-|
E|-1--1--3--4--3--1----------------|

Pre Chorus
e|--------|
b|--------|
G|-6.--8.-|(x2)
D|-6.--8.-|
A|-4.--6.-|
E|--------|

Riff
e|---------------------------------|
b|---------------------------------|
G|---------------------------------|(x2)
D|---------------------------------|
A|-3--6-5-3--6-5-6--6-5-6--5-6-5-3-|
E|---------------------------------|

Interlude
e|------------------------|
b|------------------------|
G|-------------x----------|
D|-pickslide--x-pickslide-|
A|-----------x------------|
E|------------------------|

e|-----------------------------------------|
b|-----------------------------------------|
G|---------------------6-6-66-66-----------|(x2)
D|-3-3-33-33-8-8-88-88-6-6-66-66-3-3-33-33-|
A|-3-3-33-33-8-8-88-88-4-4-44-44-3-3-33-33-|
E|-1-1-11-11-6-6-66-66-----------1-1-11-11-|
Tap to rate this tab
 
# A B C D E F G H I J K L M N O P Q R S T U V W X Y Z