Song name
# A B C D E F G H I J K L M N O P Q R S T U V W X Y Z

Offspring - Neocon tab

Offspring - Neocon
Album - Splinter
Tabbed By - Garry Foster (gazfoster@hotmail.com)

| /  slide up
| \  slide down
| h  hammer-on
| p  pull-off
| ~  vibrato
| +  harmonic
| x  Mute note
|PM  Palm Mute

This song is just one whole riff except the ending.
Standard Tuning Down a Half Step - Eb Ab Db Gb Bb Eb 


Drum rhythym - For Muting Guitar

Eb||--x----x----x----x----|--x------x--x--------|--x----x----x----x----|
Bb||--x----x----x----x----|--x------x--x--------|--x----x----x----x----|
Gb||--x----x----x----x----|--x------x--x--------|--x----x----x----x----|
Db||--x----x----x----x----|--x------x--x--------|--x----x----x----x----|
Ab||--x----x----x----x----|--x------x--x--------|--x----x----x----x----|
Eb||--x----x----x----x----|--x------x--x--------|--x----x----x----x----|



--x------x--x--------|--x----x----x----x----|--x------x--x--------||
--x------x--x--------|--x----x----x----x----|--x------x--x--------||
--x------x--x--------|--x----x----x----x----|--x------x--x--------||
--x------x--x--------|--x----x----x----x----|--x------x--x--------||
--x------x--x--------|--x----x----x----x----|--x------x--x--------||
--x------x--x--------|--x----x----x----x----|--x------x--x--------||


Guitar - Distortion

Eb||------|-------------------|-------------------|--------------------|
Bb||------|-------------------|-------------------|--------------------|
Gb||------|-------------------|-------------------|--------------------|
Db||------|-------------------|-------------------|--------------------|
Ab||------|----------------5--|--5----------------|--2--------------5--|
Eb||------|----------------3--|--3----------------|--0--------------3--|



-------------------|-----------------------||
-------------------|-----------------------||
-------------------|-----------------------||
-------------------|-----------------------||
--5----------------|--2--------------5-----||
--3----------------|--0--------------3-etc-||


Ending - Drum Rhythym for Muted Guitar

Eb||--x----x----x----x----|--x------x--x--------||
Bb||--x----x----x----x----|--x------x--x--------||
Gb||--x----x----x----x----|--x------x--x--------||
Db||--x----x----x----x----|--x------x--x--------||
Ab||--x----x----x----x----|--x------x--x--------||
Eb||--x----x----x----x----|--x------x--x--------||

Ending - Guitar Distortion

Eb||-------------------|-----------------||
Bb||-------------------|-----------------||
Gb||-------------------|-----------------||
Db||-------------------|-----------------|| To "The Noose"
Ab||--5----------------|--2------2--2----||
Eb||--3----------------|--0------0--0----||


gazfoster@hotmail.com
Tap to rate this tab
# A B C D E F G H I J K L M N O P Q R S T U V W X Y Z