Song name
# A B C D E F G H I J K L M N O P Q R S T U V W X Y Z

Offspring - Baghdad tab

These are the riffs for Baghdad:

Riff 1
G|-------------------------------------------------------------------|
D|-------------------------------------------------------------------|
A|-77--77---5-8------------------------------------------------------|
E|----0----7---------------------------------------------------------|

Riff 2
G|-------------------------------------------------------------------|
D|--------------------------------------------------7--------------9-|
A|---------------9---------------10----------------------------------|
E|--0-000-000-00----0-000-000-00-------0-000-000-00---0-000-000-00---|

Riff 3
G|-------------------------------------------------------------------|
D|-------------------------------------------------------------------|
A|-7-777-777-777-8---7-777-777-77-5-7--------------------------------|
E|-------------------------------------------------------------------|

Riff 4
G|-------------------------------------------------------------------|
D|-------------------------------------------------------------------|
A|-------------------------------------------------------------------|
E|-0-000-000-000-0-000-000-000-0-000-000-000-0-000-000-000-----------|

Riff 5
G|-------------------------------------------------------------------|
D|--------------------8----------------------------------------------|
A|-5-555-555-555-----------------------------------------------------|
E|-------------------------------------------------------------------|

Riff 6
*=play 32X
G|-------------------------------------------------------------------|
D|-------------------------------------------------------------------|
A|----5*-3*----------------------------------------------------------|
E|-3*----------------------------------------------------------------|


And this is the order in which you play them:

riff 1 x 32
riff 2 x 1
riff 3 x 2
riff 4 x 1
riff 5 x 1
riff 4 x 1
riff 6 x 1
riff 3 x 2
riff 4 x 1
riff 5 x 1
riff 4 x 1
riff 6 x 1
riff 2 x 1
riff 3 x 2
riff 4 x 4
riff 5 x 1
riff 3 x 2
riff 6 x 1
riff 3 x 2


Enjoy

By Lemonidas
Tap to rate this tab
 
# A B C D E F G H I J K L M N O P Q R S T U V W X Y Z