Song name
# A B C D E F G H I J K L M N O P Q R S T U V W X Y Z

Ofra Haza - Hai Hai Hai tab

Ofra Haza - Hai Hai Hai (alive alive alive)

Tab by Avi Yaacov, Israel 


This is a tab of the voice melody of the song


Brass Intro:
e|---6------|--4------|--6--|--8--|--6--|
B|-----6----|----6----|-----|-----|-----|
G|-------6--|------6--|-----|-----|-----|
D|----------|---------|-----|-----|-----|
A|----------|---------|-----|-----|-----|
E|----------|---------|-----|-----|-----|


Voice:
e|------1----|------1----|------1------------------|
B|----2---4--|----2---4--|----2---4---2-1-2-1------|
G|--3--------|--3--------|--3-----------------1-3--|
D|-----------|-----------|-------------------------|    X 2
A|-----------|-----------|-------------------------|
E|-----------|-----------|-------------------------|


e|------1-4--|--------6--|--4-4-4--4----------------------|
B|----2------|--6---6----|-----------6-4---6--(4)---------|
G|--1--------|----6------|---------------6-------(6)-(5)--|
D|-----------|-----------|--------------------------------|
A|-----------|-----------|--------------------------------|
E|-----------|-----------|--------------------------------|


e|------1----|------1----|------1------------------|
B|----2---4--|----2---4--|----2---4---2-1-2-1------|
G|--3--------|--3--------|--3-----------------1-3--|
D|-----------|-----------|-------------------------|    X 2
A|-----------|-----------|-------------------------|
E|-----------|-----------|-------------------------|


e|------1-4--|--------6--|--6-6-6---6-6---6-6--5-5-6-8--|
B|----2------|--6---6----|------------------------------|
G|--1--------|----6------|------------------------------|
D|-----------|-----------|------------------------------|
A|-----------|-----------|------------------------------|
E|-----------|-----------|------------------------------|


e|---6------|--4--4-4------|---------4-6-6-6--|--4----------|
B|-----6----|---------6----|--6--6-6----------|----6-4-2----|
G|-------6--|-----------6--|------------------|----------3--|
D|----------|--------------|-----{ x2 }-------|-------------|
A|----------|--------------|------------------|-------------|
E|----------|--------------|------------------|-------------|


e|------4-6------|--4--4-4------|---------4-6-6-6--|--4----------|
B|----6-----6----|---------6----|--6--6-6----------|----6-4-2----|
G|--6---------6--|-----------6--|------------------|----------3--|
D|---------------|--------------|-----{ x2 }-------|-------------|
A|---------------|--------------|------------------|-------------|
E|---------------|--------------|------------------|-------------|



e|------1----|------1----|------1------------------|
B|----2---4--|----2---4--|----2---4---2-1-2-1------|
G|--3--------|--3--------|--3-----------------1-3--|
D|-----------|-----------|-------------------------|    X 2
A|-----------|-----------|-------------------------|
E|-----------|-----------|-------------------------|



e|------1-4--|--------6--|--6-6-6---6-6---6-6--5-5-6-8--|
B|----2------|--6---6----|------------------------------|
G|--1--------|----6------|------------------------------|
D|-----------|-----------|------------------------------|
A|-----------|-----------|------------------------------|
E|-----------|-----------|------------------------------|



e|---6------|--4--4-4------|---------4-6-6-6--|--4----------|
B|-----6----|---------6----|--6--6-6----------|----6-4-2----|
G|-------6--|-----------6--|------------------|----------3--|
D|----------|--------------|-----{ x2 }-------|-------------|
A|----------|--------------|------------------|-------------|
E|----------|--------------|------------------|-------------|



e|------4-6------|--4--4-4------|---------4-6-6-6--|--4----------|
B|----6-----6----|---------6----|--6--6-6----------|----6-4-2----|
G|--6---------6--|-----------6--|------------------|----------3--|
D|---------------|--------------|-----{ x2 }-------|-------------|
A|---------------|--------------|------------------|-------------|
E|---------------|--------------|------------------|-------------|
Tap to rate this tab
 
# A B C D E F G H I J K L M N O P Q R S T U V W X Y Z