Song name
# A B C D E F G H I J K L M N O P Q R S T U V W X Y Z

Ofra Haza - Tfila tab

Ofra Haza - Tfila (Prayer)

Tab by Avi Yaacov, Israel 


This is a tab of the voice melody of the song


e|---0-------|--0--|--1-0-----1-0----1--|
B|-----3-1---|-----|------3-------3-----|
G|-----------|-----|--------------------|
D|---{ X 3}--|-----|--------------------|
A|-----------|-----|--------------------|
E|-----------|-----|--------------------|

e|-----------|-----|---0-------0-------0--|
B|---3-1-0---|--3--|-----3-1-----3-1------|
G|-----------|-----|----------------------|
D|---{ X 3}--|-----|----------------------|
A|-----------|-----|----------------------|
E|-----------|-----|----------------------|


e|---0-------|--0--|--1-0-----1-0----1--|
B|-----3-1---|-----|------3-------3-----|
G|-----------|-----|--------------------|
D|---{ X 3}--|-----|--------------------|
A|-----------|-----|--------------------|
E|-----------|-----|--------------------|

e|--0-0---0-0---0-4-4--5-7-5---|---4-5-7---|
B|-----------------------------|-----------|
G|-----------------------------|-----------|
D|-----------------------------|-----------|
A|-----------------------------|-----------|
E|-----------------------------|-----------|

e|--8-8---8-8---7-5-5--3-1-1--|--7-7---7-7---8-10-0--|
B|----------------------------|----------------------|
G|----------------------------|----------------------|
D|----------------------------|----------------------|
A|----------------------------|----------------------|
E|----------------------------|----------------------|

e|--5-5---5-5---3-1-1-0------|--0-0---0-0---0-0---4-4--5-7--|
B|----------------------3-3--|------------------------------|
G|---------------------------|------------------------------|
D|---------------------------|------------------------------|
A|---------------------------|------------------------------|
E|---------------------------|------------------------------|



e|--8-8---8-8--7-5-5--3-1-1--|--7-7--7-7--8-10-0--|
B|---------------------------|--------------------|
G|---------------------------|--------------------|
D|---------------------------|--------------------|
A|---------------------------|--------------------|
E|---------------------------|--------------------|

e|--5-5---5-5--3-1-1-0------|--0-0---0-0---7-5-5--|
B|---------------------3-3--|---------------------|
G|--------------------------|---------------------|
D|--------------------------|---------------------|
A|--------------------------|---------------------|
E|--------------------------|---------------------|



Chorus only:

e|--8-8---8-8---7-5--5-3-1-1--|--7-7---7-7---8-10-0--|
B|----------------------------|----------------------|
G|----------------------------|----------------------|
D|----------------------------|----------------------|
A|----------------------------|----------------------|
E|----------------------------|----------------------|

e|--5-5---5-5---3-1-1-0------|--0-0---0-0---0-0---4-4--5-7--|
B|----------------------3-3--|------------------------------|
G|---------------------------|------------------------------|
D|---------------------------|------------------------------|
A|---------------------------|------------------------------|
E|---------------------------|------------------------------|


e|--8-8---8-8---7-5--5-3-1-1--|--7-7---7-7---8-10-0--|
B|----------------------------|----------------------|
G|----------------------------|----------------------|
D|----------------------------|----------------------|
A|----------------------------|----------------------|
E|----------------------------|----------------------|

e|--5-5---5-5--3-1-1-0------|--0-0---0-0---7-5-5--|---4-5-7---|
B|---------------------3-3--|---------------------|-----------|
G|--------------------------|---------------------|-----------|
D|--------------------------|---------------------|-----------|
A|--------------------------|---------------------|-----------|
E|--------------------------|---------------------|-----------|
Tap to rate this tab
# A B C D E F G H I J K L M N O P Q R S T U V W X Y Z