Song name
# A B C D E F G H I J K L M N O P Q R S T U V W X Y Z

Ogre You Asshole - Advantage tab

-------------------------------------------------------------------------------
			     Advantage - Ogre You Asshole
-------------------------------------------------------------------------------
Tabbed by: Epic Noob
Email: kaiser_wilhelm@hotmail.co.uk

Tuning: Standard

http://www.ogreyouasshole.com/

Not many Ogre You Asshole tabs on UG.. Well, none to be precise. 
Rate and comment! 

Guitar1
e|xx---xxxxxx----xx---10----xx---xxxxxx----xx---10-|
B|xx---xxxxxx----xx---10----xx---xxxxxx----xx---10-|
G|12---121212---(12)--12----12---121212---(12)--12-|
D|xx---xxxxxx----xx---10----xx---xxxxxx----xx---10-|
A|10---101010---(10)--10----10---101010---(10)--10-|
E|xx---xxxxxx----xx---xx----xx---xxxxxx----xx---xx-|
Guitar 2
e|-------------------------------------------------|
B|-------------------------------------------------|
G|-------------------------------------------------|
D|-------------------------------------------------|
A|-------------------------------------------------|
E|-------------------------------------------------|

Guitar 1
e|xx---xxxxxx----xx---10----xx---xxxxxx--------|
B|xx---xxxxxx----xx---10----xx---xxxxxx--------|
G|12---121212---(12)--12----12---121212---12\9-|
D|xx---xxxxxx----xx---10----xx---xxxxxx---xx\x-|
A|10---101010---(10)--10----10---101010---10\7-|
E|xx---xxxxxx----xx---xx----xx---xxxxxx--------|
Guitar 2
e|---------------------------------------------|
B|---------------------------------------------|
G|---------------------------------------------|
D|---------------------------------------------|
A|---------------------------------------------|
E|---------------------------------------------|

Guitar 1
e|-------------------------------------------------------------| 
B|-------------------------------------------------------------|
G|9-9-9-9-9-9-9-7--9-9-9-9-9-9-9-7---12-1212-12---12---1212-12-| x2
D|x-x-x-x-x-x-x-x--x-x-x-x-x-x-x-x---xx-xxxx-xx---xx---xxxx-xx-|
A|7-7-7-7-7-7-7-5--7-7-7-7-7-7-7-5---10-1010-10---10---1010-10-|
E|-------------------------------------------------------------|
Guitar 2
e|------------------------------------------------------|
B|------------------------------------------------------|
G|16----------16-16----------16----------16-16-------14-| ->
D|---14-17-14-------14-17-14----14-17-14-------14-17----| ->
A|------------------------------------------------------|
E|------------------------------------------------------|
Cont'd.
e|--------------------------------| 
B|15-15-15b17b15-----15-15-15b17~-|
G|---------------16---------------| x2
D|--------------------------------|
A|--------------------------------|
E|--------------------------------|

Singing comes in..

Guitar 1
e|-------------------------|
B|-------------------------|
G|9-9-777-7--9-9-121212-12-| x2 ~Bassline~
D|x-x-xxx-x--x-x-xxxxxx-xx-|
A|7-7-555-5--7-7-101010-10-|
E|-------------------------|
Guitar 2
e|-------------------------|
B|-------------------------|
G|9-9-777-7--9-9-121212-12-| x2 ~Bassline~
D|x-x-xxx-x--x-x-xxxxxx-xx-|
A|7-7-555-5--7-7-101010-10-|
E|-------------------------|

Guitar 1
e|-------------------------------------------------------------| 
B|-------------------------------------------------------------|
G|9-9-9-9-9-9-9-7--9-9-9-9-9-9-9-7---12-1212-12---12---1212-12-| x2
D|x-x-x-x-x-x-x-x--x-x-x-x-x-x-x-x---xx-xxxx-xx---xx---xxxx-xx-|
A|7-7-7-7-7-7-7-5--7-7-7-7-7-7-7-5---10-1010-10---10---1010-10-|
E|-------------------------------------------------------------|
Guitar 2
e|------------------------------------------------------|
B|------------------------------------------------------|
G|16----------16-16----------16----------16-16-------14-| ->
D|---14-17-14-------14-17-14----14-17-14-------14-17----| ->
A|------------------------------------------------------|
E|------------------------------------------------------|
Cont'd.
e|--------------------------------| 
B|15-15-15b17b15-----15-15-15b17~-|
G|---------------16---------------| x2
D|--------------------------------|
A|--------------------------------|
E|--------------------------------|

~Bassline + Drum Buildup~

Guitar 1
e|---------------[first 3 times only| 
B|---------------[---------|
G|9-9-777-7--9-9-[121212-12| x4
D|x-x-xxx-x--x-x-[xxxxxx-xx|
A|7-7-555-5--7-7-[101010-10|
E|---------------[---------|
Guitar 2
e|---------------[first 3 times only| 
B|---------------[----------|
G|9-9-777-7--9-9-[121212-12-| x4
D|x-x-xxx-x--x-x-[xxxxxx-xx-|
A|7-7-555-5--7-7-[101010-10-|
E|---------------[----------|

Guitar 1
e|---------------------------------|
B|---------------------------------|
G|7/9\7/9\7/9--12--4/7-------------|
D|x/x\x/x\x/x--xx--x/x-7--9-7--7-5-|
A|5/7\5/7\5/7--10--2/5-x--x-x--x-x-|
E|---------------------5--7-5--5-3-|
Guitar 2
e|---------------------------------|
B|---------------------------------|
G|7/9\7/9\7/9--12--4/7-------------|
D|x/x\x/x\x/x--xx--x/x-7--9-7--7-5-|
A|5/7\5/7\5/7--10--2/5-x--x-x--x-x-|
E|---------------------5--7-5--5-3-|

Guitar 1
e|-----------------------------------|
B|-----------------------------------|
G|7/9\7/9\7/9--12--4/7---------------|
D|x/x\x/x\x/x--xx--x/x-7--9-9--12-12-|
A|5/7\5/7\5/7--10--2/5-x--x-x--xx-xx-|
E|---------------------5--7-7--10-10-|
Guitar 2
e|-----------------------------------|
B|-----------------------------------|
G|7/9\7/9\7/9--12--4/7---------------|
D|x/x\x/x\x/x--xx--x/x-7--9-9--12-12-|
A|5/7\5/7\5/7--10--2/5-x--x-x--xx-xx-|
E|---------------------5--7-7--10-10-|

Guitar 1
e|---------------------------------------------| 
B|---------------------------------------------|
G|9--4-----------------7/9--4------------------| x2
D|x--x--7----9-7--7-5--x/x--x--7----9-9--12-12-|
A|7--2--x----x-x--x-x--5/7--2--x----x-x--xx-xx-|
E|------5----7-5--5-3----------5----7-7--10-10-|
Guitar 2
e|---------------------------------------------| 
B|---------------------------------------------|
G|9--4-----------------7/9--4------------------| x2
D|x--x--7----9-7--7-5--x/x--x--7----9-9--12-12-|
A|7--2--x----x-x--x-x--5/7--2--x----x-x--xx-xx-|
E|------5----7-5--5-3----------5----7-7--10-10-|

    {Guitar 1
    {e|------------------------------|
    {B|------------------------------|
    {G|121212121212121212121212-9999-| x3
    {D|xxxxxxxxxxxxxxxxxxxxxxxx-xxxx-|
    {A|101010101010101010101010-7777-|
    {E|------------------------------|
    {Guitar 2
    {e|---------------|
    {B|---------------|
    {G|---------7h9p7-| x3
    {D|9-9--9-9-------|
    {A|---------------|
 x2 {E|---------------|
    {Guitar 1
    {e|---------------------------------|
    {B|---------------------------------|
    {G|10101010101010101010101010101010-| x1
    {D|xxxxxxxxxxxxxxxxxxxxxxxxxxxxxxxx-|
    {A|12121212121212121212121212121212-|
    {E|---------------------------------|
    {Guitar 2
    {e|12----------------------|
    {B|---12-15----12----------|
    {G|---------14----14-12----| x1
    {D|---------------------14-|
    {A|------------------------|
    {E|------------------------|

Guitar 1
e|--------------------------------|
B|--------------------------------|
G|9-9-9-9-9-9-9-9-7-7-7-7-7-7-9-9-| x2
D|x-x-x-x-x-x-x-x-x-x-x-x-x-x-x-x-|
A|7-7-7-7-7-7-7-7-5-5-5-5-5-5-7-7-|
E|--------------------------------|
Guitar 2
e|--------------------------------|
B|--------------------------------|
G|4-4-4-4-9-9-9-9-7-7-7-7-7-7-9-9-|
D|x-x-x-x-x-x-x-x-x-x-x-x-x-x-x-x-|
A|2-2-2-2-7-7-7-7-5-5-5-5-5-5-7-7-|
E|--------------------------------|

Guitar 1
e|------------------------------------------------------|
B|------------------------------------------------------|
G|------------------------------------------------------|
D|------------------------------------------------------|
A|------------------------------------------------------|
E|------------------------------------------------------|
Guitar 2
e|------------------------------------------------------|
B|------------------------------15----------------------|
G|16----------16-16----------------16-14-16-16----------| ->
D|---14-17-14-------14-17-14-------------------14-17-14-| ->
A|---------------------------17-------------------------|
E|------------------------------------------------------|
Guitar 2
e|------------------------------------------------------|
B|---------------------------------------15-15----------|
G|16----------16-16-------------14-16-14-------16-14----| x2
D|---14-17-14-------14-17-14-------------------------17-| 
A|---------------------------17-------------------------|
E|------------------------------------------------------|

Guitar 1
e|-------------------------------------------|
B|-------------------------------------------|
G|-------------------------------------------|
D|-------------------------------------------|
A|-------------------------------------------|
E|-------------------------------------------|
Guitar 2
e|-------------------------------------------|
B|12-----------------12----12-12-------------|
G|14--12----12----12----12-------12-12-11----| x2
D|12-----14----14-------------------------12-|
A|-------------------------------------------|
E|-------------------------------------------|

Guitar 1 With Delay
e|---------------------------------------------------------------------------|
B|------------------------------------------------12-------------------------|
G|------------------------12----12----12-14-12-14----12-11-12-11-------------| x2
D|12-11-12-11-12-14-12-14----14----14----------------------------12~---12-14~|
A|------------------------------------------------------------------14-------|
E|---------------------------------------------------------------------------|
Guitar 2 With Delay
e|---------------------------------------------------------------------------|
B|------------------------------------------------15-12----12----------------|
G|------------------------12----12----12-14-12-14-------14----14-------------| x2
D|12-11-12-11-12-14-12-14----14----14----------------------------12~---12-14~|
A|------------------------------------------------------------------14-------|
E|---------------------------------------------------------------------------|

Guitar 1 [14] Included on second play through.
e|-------------------------------------------------------------------------|
B|-------------------------------------------------------------------------|
G|---------11-12-12----------11-12~----------11-12-12-14-12-11-------------| x2
D|11-12-14----------11-12-14--------11-12-14-------------------14-12-11----|
A|----------------------------------------------------------------------[14|
E|-------------------------------------------------------------------------|
Guitar 2 [14] Included on second play through.
e|-------------------------------------------------------------------------|
B|-------------------------------------------------------------------------|
G|---------11-12-12----------11-12~----------11-12-12-14-12-11-------------| x2
D|11-12-14----------11-12-14--------11-12-14-------------------14-12-11----|
A|----------------------------------------------------------------------[14|
E|-------------------------------------------------------------------------|

| /  slide up
| \  slide down
| h  hammer-on
| p  pull-off
| ~  vibrato
| +  harmonic
| x  Mute note
===============================================================================
Tap to rate this tab
# A B C D E F G H I J K L M N O P Q R S T U V W X Y Z