Song name
# A B C D E F G H I J K L M N O P Q R S T U V W X Y Z

Ogre You Asshole - Jn tab

-------------------------------------------------------------------------------
			     J.N - Ogre You Asshole
-------------------------------------------------------------------------------
Tabbed by: Epic Noob
Email: kaiser_wilhelm@hotmail.co.uk

Tuning: Standard

Intro
Guitar 1
e|3-1-3~----------6---6-----|
B|--------1-4-6-8---8---8~--|
G|--------------------------|
D|--------------------------|
A|--------------------------|
E|--------------------------|
Guitar 1
e|3-1-3~----------6---6-8~--|
B|--------1-4-6-8---8-------|
G|--------------------------|
D|--------------------------|
A|--------------------------|
E|--------------------------|
Guitar 1
e|3-1-3~----------6---6-----|
B|--------1-4-6-8---8---8~--|
G|--------------------------|
D|--------------------------|
A|--------------------------|
E|--------------------------|
Guitar 1
e|------8-6-8~----------6---6-8---8---8---8---8---8---8---8--|
B|8-6-8-------------6-8---8-----8---8---8---8---8---8---8---8|
G|--------------5-8------------------------------------------|
D|-----------------------------------------------------------|
A|-----------------------------------------------------------|
E|-----------------------------------------------------------|
pm                            . . . . . . . .
Guitar 2 played underneath the four Guitar 1 parts
e|----------------------------------6---6---6---6---8---8---8---8-|
B|--8---8---8---8---8---8---8---8---------------------------------|
G|5---5---5---5---5---5---5---5---5---5---5---5---5---5---5---5---| x4
D|----------------------------------------------------------------|
A|----------------------------------------------------------------|
E|----------------------------------------------------------------|


Guitar 1 Distortion kicked 0:44/0:45
e|8--------8-8--------8--------8-8-------|
B|--8-11-8-----8-11-8---8-11-8-----8-6-8-|
G|---------------------------------------| x6
D|---------------------------------------|
A|---------------------------------------|
E|---------------------------------------|
Guitar 2 kicks in after guitar one plays above riff twice
e|-----------------------------------------------------------|
B|-----------------------------------------------------------|
G|12-12-12-12-12-12-12-12-1515151515151515/19191919\17171717-| x2
D|-----------------------------------------------------------|
A|10-10-10-10-10-10-10-10-1313131313131313/17171717\15151515-|
E|-----------------------------------------------------------|


Guitar 1 + Guitar 2
e|-------------------------------------------------------|
B|-------------------------------------------------------|
G|--------------------/1515151515151515\1212121212121212-|
D|---10-----10-----10------------------------------------|
A|--------------------/1313131313131313\1010101010101010-|
E|8-8-8--8-8-8--8-8-8------------------------------------|
Guitar 1 + Guitar 2
e|-------------------------------------------------------|
B|-------------------------------------------------------|
G|--------------------/1515151515151515/1717171717171717-|
D|---10-----10-----10------------------------------------|
A|--------------------/1313131313131313/1515151515151515-|
E|8-8-8--8-8-8--8-8-8------------------------------------|

Guitar 1    
e|--6-----6-----6h8-----6------------------------------------|
B|-----------------------------------------------------------|
G|5---5-5---5-5-----5-5---12-12-1212121212--12-12-1212121212-| x2
D|-----------------------------------------------------------|
A|------------------------10-10-1010101010--10-10-1010101010-|
E|-----------------------------------------------------------|
Guitar 2
e|-----------------------------------------------------------|
B|-----------------------------------------------------------|
G|12-12-12-12-12-12-12-12-1111111111111111/19191919\17171717-| x2
D|-----------------------------------------------------------|
A|10-10-10-10-10-10-10-10-1313131313131313/17171717\15151515-|
E|-----------------------------------------------------------|

Guitar 1 only play first section on second play through
e|--------------------]-7h8-6----------|
B|8~---------8----6/8-]-------8-6-6h8~-|
G|------8-10---10-----]----------------| x2
D|---10---------------]----------------|
A|--------------------]----------------|
E|--------------------]----------------|

Guitar 1 
e|8--------8-8--------8--------8-8-------|
B|--8-11-8-----8-11-8---8-11-8-----8-6-8-|
G|---------------------------------------| x6
D|---------------------------------------|
A|---------------------------------------|
E|---------------------------------------|
Guitar 2 kicks in after guitar one plays above riff twice
e|-----------------------------------------------------------|
B|-----------------------------------------------------------|
G|12-12-12-12-12-12-12-12-1515151515151515/19191919\17171717-| x2
D|-----------------------------------------------------------|
A|10-10-10-10-10-10-10-10-1313131313131313/17171717\15151515-|
E|-----------------------------------------------------------|

Guitar 1
e|-----------------------------------|
B|-----------------------------------|
G|12/15151515/1717171717171717-12-12-| ->
D|-----------------------------------| ->
A|10/13131313/1515151515151515-10-10-|
E|-----------------------------------|
Guitar 1
e|-----------------------------------|
B|-----------------------------------|
G|12/19191919/1717171717171717-12-12-| x2
D|-----------------------------------| 
A|10/17171717/1515151515151515-10-10-|
E|-----------------------------------|
Guitar 2
e|------------------------|
B|------------------------|
G|12-12-12-12-12-12-12-12-| x4
D|------------------------|
A|10-10-10-10-10-10-10-10-|
E|------------------------|

Guitar 1 play initial section only for 1st play through
e|-----------[--8-6------------8-6---------|
B|-----------[------8-6-8-6-8------8-6-8-6-|
G|12/15151515[-----------------------------| ->
D|-----------[-----------------------------| ->
A|10/13131313[-----------------------------|
E|-----------[-----------------------------|
Guitar 1
e|8-6-8-6-8-6-8-6----8---8---8---8-|
B|---------------------------------|
G|-----------------5---5---5---5---| x2
D|---------------------------------| 
A|---------------------------------|
E|---------------------------------|

Both Guitars 1+2
e|-----------------------------------------------------------------|
B|-----------------------------------------------------------------|
G|-----------------------------------------------------------------| ->
D|1010101010101010101010101010/1515/171717171717171717171717171717-| ->
A|-----------------------------------------------------------------|
E|8-8-8-8-8-8-8-8-8-8-8-8-8-8-/1313/151515151515151515151515151515-|
Both Guitars 1+2
e|------------------------------------------------------------------|
B|------------------------------------------------------------------|
G|------------------------------------------------------------------|
D|20202020202020202020202020202020\17171717171717171717171717171717-|
A|------------------------------------------------------------------|
E|18181818181818181818181818181818\15151515151515151515151515151515-|

Both Guitars 1+2
e|-----------------------------------------------------------------|
B|-----------------------------------------------------------------|
G|-----------------------------------------------------------------| ->
D|1010101010101010101010101010/1515/171717171717171717171717171717-| ->
A|-----------------------------------------------------------------|
E|8-8-8-8-8-8-8-8-8-8-8-8-8-8-/1313/151515151515151515151515151515-|
Both Guitars 1+2
e|------------------------------------------------------------------|
B|------------------------------------------------------------------|
G|------------------------------------------------------------------|
D|20202020202020202020202020202020/22222222222222222222222222222222-|
A|------------------------------------------------------------------|
E|18181818181818181818181818181818/20202020202020202020202020202020-|

Guitar 1 
e|8--------8-8--------8--------8-8-------|
B|--8-11-8-----8-11-8---8-11-8-----8-6-8-|
G|---------------------------------------| x6
D|---------------------------------------|
A|---------------------------------------|
E|---------------------------------------|
Guitar 2 kicks in after guitar one plays above riff twice
e|-----------------------------------------------------------|
B|-----------------------------------------------------------|
G|12-12-12-12-12-12-12-12-1515151515151515/19191919\17171717-| x2
D|-----------------------------------------------------------|
A|10-10-10-10-10-10-10-10-1313131313131313/17171717\15151515-|
E|-----------------------------------------------------------|

Guitar 1
e|------------------------|
B|------------------------|
G|17-17-15-15-17-17-15-15-| x4
D|------------------------|
A|15-15-13-13-15-15-13-13-|
E|------------------------|
Guitar 2
e|-------------------------------------------------------------------|
B|-------------------------------------------------------------------|
G|121215151212151512121515121215151212151512121515-19191919-17171717-| x2
D|-------------------------------------------------------------------|
A|101013131010131310101313101013131010131310101313-17171717-19191919-|
E|-------------------------------------------------------------------|


| /  slide up
| \  slide down
| h  hammer-on
| p  pull-off
| ~  vibrato
| +  harmonic
| x  Mute note
===============================================================================
Tap to rate this tab
 
# A B C D E F G H I J K L M N O P Q R S T U V W X Y Z