Song name
# A B C D E F G H I J K L M N O P Q R S T U V W X Y Z

Oh Laura - Release Me tab

This song is played with a capo
 on the first fret, however you can play without one. It's easier to play the inro without. 

Intro without capo
                                             Chords
        G#                               G#     A#m    C#     D#
e|------------6--4----------|       |e|---4--|---1--|---4--|---6--|
B|------------4--4----------|       |B|---4--|---2--|---6--|---8--|
G|--------------------------|  4x   |G|---5--|---3--|---6--|---8--|
D|------6-----------6-------|       |D|---6--|---3--|---6--|---8--|
A|---------6--------6-------|       |A|---6--|---1--|---4--|---6--|
E|--3------------------3----|       |E|---4--|---x--|---x--|---x--|



Inro with capo

              4x
e#|-----------4--2-----------|
B#|-----------2--2-----------|
G#|-----0-----------0--------|
D#|--------0-----------2-----|
A#|--------------------------|
E#|--3--------------------3--|


After the intro you 
play (with capo):                 Without capo: 
 
   8x                                 8x
e#|------------2----------|     |e|------------4-------|
B#|------------2----------|     |B|------------4-------|
G#|------0-----0----------|     |G|------5-----5-------|
D#|-----------------------|     |D|--------------------|
A#|---------2-------------|     |A|---------6----------|
E#|---3----------------3--|     |E|---4-------------4--|
Tap to rate this tab
# A B C D E F G H I J K L M N O P Q R S T U V W X Y Z