Song name
# A B C D E F G H I J K L M N O P Q R S T U V W X Y Z

Oh No Not Stereo - All You tab

-------------------------------------------------------------------------------
			     "ALL YOU" - Oh No Not Stereo
-------------------------------------------------------------------------------
Tabbed by: ohnonotsky

Tuning: E A D G B E (Standard Tuning)

Intro riff [GUITAR ONE]

e|-----------------------------------------------------------------------------|
B|-----------------------------------------------------------------------------|
G|-----8-----------8-----------------------------8--------8------------------9-|
D|--------------------------8-----------8-------------------------9------------|
A|6--6----6---6--6-------------------------6---6--6---6--6---------------------|
E|---------------------6---6----6---6--6---------------------7---7---7---7--7--|

Intro riff [GUITAR TWO]

e|-----------------------------------------------------------------------------|
B|-----------------------------------------------------------------------------|
G|-----------------------------------------------------------------------------|
D|8--8----8--8--8--------------------------------------------------------------|
A|-----10---------10--8--8----8---8--8---------10--------10------6----------6--|
E|-------------------------10----------10--8--8---8--8--8---4---4--4-4--4--4---|

Verse 1 [GUITAR ONE]  "She's got everything she needs, but the gauge is reading..."
e|-----------------------------------------------------------------------------|
B|-----------------------------------------------------------------------------|
G|-----------------------------------------------------------------------------|
D|-----------------------------------------------------------------------------|
A|-6-6-6-6-6-6-6-6-6-6-6-6-6-6-6-6---------------------------------------------|
E|---------------------------------6-6-6-6-6-6-6-6-6-6-6-6-6-6-6-6-------------|

"...empty again, whoa woahhhhhh..."
e|----------------------------------4----4-------------------------------------|
B|----------------------------------4----4-------------------------------------|
G|----------------------------------4----4-------------------------------------|
D|----------------------------------6----6-------------------------------------|
A|----------------------------------6----6-------------------------------------|
E|-8-8-8-8-8-8-8-8-8-8-8-8-8-8-8-8--4----4-------------------------------------|

Verse 1B [BOTH GUITARS] "You always call it as you see, and you'll do it all day..."
e|-----------------------------------------------------------------------------|
B|-----------------------------------------------------------------------------|
G|-8-8-8-8-8-8-8-8-8-8-8-8-8-8-8-8---------------------------------------------|
D|-8-8-8-8-8-8-8-8-8-8-8-8-8-8-8-8--8-8-8-8-8-8-8-8-8-8-8-8-8-8-8-8------------|
A|-6-6-6-6-6-6-6-6-6-6-6-6-6-6-6-6--8-8-8-8-8-8-8-8-8-8-8-8-8-8-8-8------------|
E|----------------------------------6-6-6-6-6-6-6-6-6-6-6-6-6-6-6-6------------|

"...because it's what you believe."
e|-8--8--8--8--8--8--8--8--8--8--8--8--8--8--8--8--4----4----------------------|
B|-8--8--8--8--8--8--8--8--8--8--8--8--8--8--8--8--4----4----------------------|
G|-8--8--8--8--8--8--8--8--8--8--8--8--8--8--8--8--5----4----------------------|
D|-10-10-10-10-10-10-10-10-10-10-10-10-10-10-10-10-6----6----------------------|
A|-10-10-10-10-10-10-10-10-10-10-10-10-10-10-10-10-6----6----------------------|
E|-8--8--8--8--8--8--8--8--8--8--8--8--8--8--8--8--4----4----------------------|

Chorus [GUITAR ONE] "The way that you speak, like you know it's so true..."
e|X--X-X---X--X--X-X--X-X--6--6-6--6--6--6-6--6-6--8--8--8---8--8--8--8--8--8--|
B|8--8-8---8--8--8-8--8-8--6--6-6--6--6--6-6--6-6--8--8--8---8--8--8--8--8--8--|
G|8--8-8---8--8--8-8--8-8--7--7-7--7--7--7-7--7-7--8--8--8---8--8--8--8--8--8--|
D|8--8-8---8--8--8-8--8-8--8--8-8--8--8--8-8--8-8--10-10-10--10-10-10-10-10-10-|
A|6--6-6---6--6--6-6--6-6--8--8-8--8--8--8-8--8-8--10-10-10--10-10-10-10-10-10-|
E|X--X-X---X--X--X-X--X-X--6--6-6--6--6--6-6--6-6--8--8--8---8--8--8--8--8--8--|

"...your desperation is all you."
e|-4-4--4-4--4-4---4-----------------------------------------------------------|
B|-4-4--4-4--4-4---4-----------------------------------------------------------|
G|-5-5--5-5--5-5---4-----------------------------------------------------------|
D|-6-6--6-6--6-6---6-----------------------------------------------------------|
A|-6-6--6-6--6-6---6-----------------------------------------------------------|
E|-4-4--4-4--4-4---4-----------------------------------------------------------|

[BOTH GUITARS]
"Oooohhhhh.... your desperation"
e|-----------------------------------------------------------------------------|
B|-----------------------------------------------------------------------------|
G|-8-8-8-8-8-8-8-8-8-8-8-8-8-8-8-8---------------------------------------------|
D|-8-8-8-8-8-8-8-8-8-8-8-8-8-8-8-8--8-8-8-8-8-8-8-8-8-8-8-8-8-8-8-8------------|
A|-6-6-6-6-6-6-6-6-6-6-6-6-6-6-6-6--8-8-8-8-8-8-8-8-8-8-8-8-8-8-8-8------------|
E|----------------------------------6-6-6-6-6-6-6-6-6-6-6-6-6-6-6-6------------|

"...whoa whoa oh oh..."
e|-8--8--8--8--8--8--8--8--8--8--8--8--8--8--8--8--4--4--4--4--4--4------------|
B|-8--8--8--8--8--8--8--8--8--8--8--8--8--8--8--8--4--4--4--4--4--4------------|
G|-8--8--8--8--8--8--8--8--8--8--8--8--8--8--8--8--5--5--4--4--4--4------------|
D|-10-10-10-10-10-10-10-10-10-10-10-10-10-10-10-10-6--6--6--6--6--6------------|
A|-10-10-10-10-10-10-10-10-10-10-10-10-10-10-10-10-6--6--6--6--6--6------------|
E|-8--8--8--8--8--8--8--8--8--8--8--8--8--8--8--8--4--4--4--4--4--4------------|

Verse Two  "So now you're everything she needs..."
e|X-X--X-X-X--X-X-X--X-X-X-X-X-X-X--X-X-X--X-X-X--X-X-X-X-X--------------------|
B|X-X--X-X-X--X-X-X--X-X-X-X-X-X-X--X-X-X--X-X-X--X-X-X-X-X--------------------|
G|8-8--8-8-8--8-8-8--8-8-8-8-8-X-X--X-X-X--X-X-X--X-X-X-X-X--------------------|
D|8-8--8-8-8--8-8-8--8-8-8-8-8-8-8--8-8-8--8-8-8--8-8-8-8-8--------------------|
A|6-6--6-6-6--6-6-6--6-6-6-6-6-8-8--8-8-8--8-8-8--8-8-8-8-8--------------------|
E|X-X--X-X-X--X-X-X--X-X-X-X-X-6-6--6-6-6--6-6-6--6-6-6-6-6--------------------|

"...and all your friends are saying they told you before..."
e|X--X---X--X--X---X--X--X---X--X--X--X--X---X-X-X--X-X-X--X-X-X-X-X-X---------|
B|X--X---X--X--X---X--X--X---X--X--X--X--X---X-X-X--X-X-X--X-X-X-X-X-X---------|
G|X--X---X--X--X---X--X--X---X--X--X--X--X---X-X-5--X-X-5--X-X-4-X-4-4---------|
D|10-10--10-10-10--10-10-10--10-10-10-10-10--X-X-6--X-X-6--X-X-6-X-6-6---------|
A|10-10--10-10-10--10-10-10--10-10-10-10-10--X-X-6--X-X-6--X-X-6-X-6-6---------|
E|8--8---8--8--8---8--8--8---8--8--8--8--8---X-X-4--X-X-4--X-X-4-X-4-4---------|

Verse 2b
"...you always call it as you see... whoa whoa woah..."
e|-----------------------------------------------------------------------------|
B|-----------------------------------------------------------------------------|
G|-8-8-8-8-8-8-8-8-8-8-8-8-8-8-8-8---------------------------------------------|
D|-8-8-8-8-8-8-8-8-8-8-8-8-8-8-8-8--8-8-8-8-8-8-8-8---8-X-8-X-8-X-8-X-8-X-8-X--|
A|-6-6-6-6-6-6-6-6-6-6-6-6-6-6-6-6--8-8-8-8-8-8-8-8---8-X-8-X-8-X-8-X-8-X-8-X--|
E|----------------------------------6-6-6-6-6-6-6-6---6-X-6-X-6-X-6-X-6-X-6-X--|

"...when all that you need is walking out the door..."
e|-8---8--8---8---8--8---8--8---4--4-4--4-4-4-4--4-4--4-4----------------------|
B|-8---8--8---8---8--8---8--8---4--4-4--4-4-4-4--4-4--4-4----------------------|
G|-8---8--8---8---8--8---8--8---5--5-5--5-5-5-4--4-4--4-4----------------------|
D|-10--10-10--10--10-10--10-10--6--6-6--6-6-6-6--6-6--6-6----------------------|
A|-10--10-10--10--10-10--10-10--6--6-6--6-6-6-6--6-6--6-6----------------------|
E|-8---8--8---8---8--8---8--8---4--4-4--4-4-4-4--4-4--4-4----------------------|

Repeat Chorus

Bridge
e|--------------------------------------------------------------------------XXX|
B|--------------------------------------------------------------------------XXX|
G|--------------------------------------------------------------------------888|
D|--------------------------------------------------------------9-9-9-9-9-9-888|
A|6-6-6-6-6-6-6-6-6-6-6-6-6-6-6-6-6-6-6-6-6-6-6-6-6-6-6-6-6-6-6-9-9-9-9-9-9-666|
E|--------------------------------------------------------------7-7-7-7-7-7-XXX|



************************************

X   Mute note
b   Bend

************************************
Tap to rate this tab
 
# A B C D E F G H I J K L M N O P Q R S T U V W X Y Z