Oh No Not Stereo - Lets Get It Started tab

-------------------------------------------------------------------------------
			     "LET'S GET IT STARTED" by Oh No Not Stereo
-------------------------------------------------------------------------------
Words and Music by: Skyler Nielsen and Mykul Lee
2009 All Rights Reserved.
Tabbed by: Jesus


Tuning: 'Drop D'
(6D-5A-4D-3G-2B-1E)

INTRO & CHORUS (Play twice)
e|---------------------------------------------------------------------------|
B|---------8--8-7--------8--8-7--------8--8-8--------8--8-8------------------|
G|---------7--7-7--------7--7-7--------9--9-9--------9--9-9------------------|
D|--X-0--0--------X-5--5--------X-7--7--------X-7--7-------------------------|
A|--X-0--0--------X-5--5--------X-7--7--------X-7--7-------------------------|
D|--X-0--0--------X-5--5--------X-7--7--------X-7--7-------------------------|

FULL BAND JAM
e|---------------------------------------------------------------------------|
B|---------------------------------------------------------------------------|
G|---------7----------7------------7-------7-----7---------------------------|
D|-0--0-0---0--0--0-0----7--5--5-5----7--9---0-7---X-0-----------------------|
A|-0--0-0---0--0--0-0----7--5--5-5----7--9---0-7---X-0-----------------------|
D|-0--0-0---0--0--0-0----7--5--5-5----7--9---0-7---X-0-----------------------|

END OF JAM
e|------------------------------------------0----------------------------------|
B|------------------------------------------0----------------------------------|
G|------------------------------------------0----------------------------------|
D|--X-0------------------------------------------X-0---------------------------|
A|--X-0------------------------------------------X-0---------------------------|
D|--X-0------------------1/(SLIDE TO 13)---------X-0---------------------------|

VERSE 1 (I'm not here to waste your time... I wanna see what you've been hiding)
e|---------------------------------------------------------------------------|
B|---------------------------------------------------------------------------|
G|-----------7-7-7-7-7-7-7-7-7-7-7-7-7-7-7--7-7-7-7-7-7-7--7-7-7-7-7-7-7-----|
D|-----------0-0-0-0-0-0-0-0-0-0-0-0-0-0-0--5-5-5-5-5-5-5--8-8-8-8-8-8-8-0---|
A|-----------------------------------------------------------------------0---|
D|-----------------------------------------------------------------------0---|

  (..in the lie you call a liiiiife....)
e|----------------------------------------------------------------------------|
B|----------------------------------------------------------------------------|
G|-----------7-7-7-7-7-7-7-7-7-7-7-7-7-7-7--7-7-7-7-7-7-7---------------------|
D|-----------0-0-0-0-0-0-0-0-0-0-0-0-0-0-0--5-5-5-5-5-5-5-1--1-1-1-1-1-1--0---|
A|------------------------------------------------------------------------0---|
D|------------------------------------------------------------------------0---|

 (You sit alone in your empty apartment, with a phone that isn't ringing...)
e|---------------------------------------------------------------------------|
B|---------------------------------------------------------------------------|
G|---------------------------------------------------------------------------|
D|---------------------7p----------------------8-8---------------------------|
A|--------5----------5-------------------------------------------------------|
D|-0--0-0--0--0--0-0-----5--5-5--5-5-0-7--7-7---8----------------------------|

 (and bad habits on your miiiind...)
e|-------------------------------------------------------X-X-----------------|
B|-------------------------------------------------------X-X-----------------|
G|-------------------------------------------------------X-X-----------------|
D|---------------------7p------------------------------------X---------------|
A|--------5----------5---------------------------------------X---------------|
D|-0--0-0--0--0--0-0-----5--5-5--5-5-0-7--7-7-0-7-0-7-0------X-X-X-X---------|

(REPEAT JAM PART)

VERSE 2
 (You see yourself on the television, it put an end to your lonely evening)
e|----------------------------------------------------------------------------|
B|----------------------------------------------------------------------------|
G|----------------------------------------------------------------------------|
D|-----------------------------------------------8-8--------------------------|
A|--------5-5p--------5-5p----------------------------------------------------|
D|-0--0-0------0--0-0------5--5-5--5-5-0-7--7-7---8---------------------------|

  (It's all part of your new direction, to the beginning of the end...)
e|---------------------------------------------------------------------------|
B|---------------------------------------------------------------------------|
G|---------------------------------------------------------------------------|
D|---------------------------------------------------------------------------|
A|--------5-5p--------5-5p---------------------------------------------------|
D|-0--0-0------0--0-0------5--5-5--5-5-0-7--7-7-7-7-7-7-0--------------------|

GUITAR LEAD (VERSE 2B)
e|---------------------------------------------------------------------------|
B|---10p---------------------10p---------------------------------------------|
G|--7----9p--11p--7p--------7----9p--11p--7p---------------------------------|
D|------7---9----5---5p---0-----7---9----5----X0-X0-0------------------------|
A|------------------------0-------------------X0-X0-0------------------------|
D|------------------------0-------------------X0-X0-0------------------------|

							(This is what you wanted...)
e|-----------------------------------------------0-------0-------------------|
B|---10p---------------------10p-----------------0-------0-------------------|
G|--7----9p--11p--7p--------7----9p--11p--7p-----6-------4-------3-----------|
D|------7---9----5---5p--0-0----7---9----5---5p--7-------5-------5-----------|
A|-----------------------0-0---------------------7-------5-------5-----------|
D|-----------------------0-0---------------------7-------5-------5-----------|

(CHORUS IS THE SAME AS THE INTRO!)

END OF CHORUS INTO BRIDGE
(You aged a couple years, when you changed your favorite song. Yeah you did it...)
e|---------------0--0-0-0-0-0-0---0--0-0-0-0-0-0------2--2-2-----2--2-2------|
B|---------------0--0-0-0-0-0-0---0--0-0-0-0-0-0------3--3-3-----3--3-3------|
G|---------------7--7-7-7-7-7-7\--4--4-4-4-4-4-4------2--2-2-----2--2-2------|
D|-7--7-7-0-7-8--9--9-9-9-9-9-9\--5--5-5-5-5-5-5--0--0------X-0-0------------|
A|-7--7-7-0-7-8--9--9-9-9-9-9-9\--5--5-5-5-5-5-5--0--0------X-0-0------------|
D|-7--7-7-0-7-8--9--9-9-9-9-9-9\--5--5-5-5-5-5-5--0--0------X-0-0------------|

(always gotta prove it to yourself. - You traded all your friends...)
e|-----0--0-0------0---------0-0-0-0-0-0---0--0-0-0-0-0-0---0------2--2-2-2--|
B|-----0--0-0------0---------0-0-0-0-0-0---0--0-0-0-0-0-0---0------3--3-3-3--|
G|-----6--6-6------6---------7-7-7-7-7-7\--4--4-4-4-4-4-4/--0------2--2-2-2--|
D|-7--7------X-7--7---7-8-9--9-9-9-9-9-9\--5--5-5-5-5-5-5/----X-0-0----------|
A|-7--7------X-7--7---7-8-9--9-9-9-9-9-9\--5--5-5-5-5-5-5/----X-0-0----------|
D|-7--7------X-7--7---7-8-9--9-9-9-9-9-9\--5--5-5-5-5-5-5/----X-0-0----------|

e|-------2--2-2-------0--0-0------0--0-0--X-X-X-X-X-X-X---X-X-X-X-X-X-X-X-----|
B|-------3--3-3-------0--0-0------0--0-0--X-X-X-X-X-X-X---X-X-X-X-X-X-X-X-----|
G|-------2--2-2-------6--6-6------6--6-6--4-4-4-4-4-4-4---3-3-3-3-3-3-3-X-----|
D|-X-0--0-------X-7--7------X-7--7------X-5-5-5-5-5-5-5-X-5-5-5-5-5-5-5---0---|
A|-X-0--0-------X-7--7------X-7--7------X-5-5-5-5-5-5-5-X-5-5-5-5-5-5-5---0---|
D|-X-0--0-------X-7--7------X-7--7------X-5-5-5-5-5-5-5-X-5-5-5-5-5-5-5---0---|

OUTRO/RHYTHM [guitar one] (play twice)

e|-3--3-3--3-3-3--0--0-0--0-0-0--0--0-0--0-0-0--0--0-0--0-0-0----------------|
B|-2--2-2--2-2-2--0--0-0--0-0-0--0--0-0--0-0-0--0--0-0--0-0-0----------------|
G|-3--3-3--3-3-3--4--4-4--4-4-4--6--6-6--6-6-6--6--6-6--6-6-6----------------|
D|-0--0-0--0-0-0--5--5-5--5-5-5--7--7-7--7-7-7--7--7-7--7-7-7----------------|
A|-0--0-0--0-0-0--5--5-5--5-5-5--7--7-7--7-7-7--7--7-7--7-7-7----------------|
D|-0--0-0--0-0-0--5--5-5--5-5-5--7--7-7--7-7-7--7--7-7--7-7-7----------------|

OUTRO/LEAD PART [guitar two] (play twice)

e|---------------------------------------------------------------------------|
B|---------------------------------------------------------------------------|
G|---7------11--11-11--11-9---7-9b-7-----------------------------------------|
D|------7--------------------------------------------------------------------|
A|---------------------------------------------------------------------------|
D|---------------------------------------------------------------------------|

REPEAT JAM PART


************************************
| /   slide up
| \   slide down
| p   pull-off
| +   harmonic
| x   Mute note
************************************
Tap to rate this tab
 
# A B C D E F G H I J K L M N O P Q R S T U V W X Y Z