Guitaretab - guitar tabs
Song name
# A B C D E F G H I J K L M N O P Q R S T U V W X Y Z

Oh No Oh My - Oh Be One tab

-------------------------------------------------------------------------------
			     OH BE ONE - Oh No! Oh My!
-------------------------------------------------------------------------------
Tabbed by: lilblig7
Email: lilblig7@yahoo.com

Tuning: Standard

Intro/Verse: Guitar 1
e|---------------------------------------------------------------------------|
B|---------------------------------------------------------------------------|
G|--(3)--3-3---3---3-3-------------------------------------------------------|
D|---3---3-3---3---3-3-------------------------------------------------------|
A|-1---0---------------0-----------------------------------------------------|
E|-----------3---3-----------------------------------------------------------|
[ Tab from: http://www.guitaretab.com/o/oh-no-oh-my/108759.html ]
Intro/Verse Guitar 2
e|-------10-13----10-8-10----10-8-10----10-8-10------------------------------|
B|----11-------11---------11---------11--------------------------------------|
G|-10------------------------------------------------------------------------|
D|---------------------------------------------------------------------------|
A|---------------------------------------------------------------------------|
E|---------------------------------------------------------------------------|

e|-------10-13----10-8-10----10-11-10----10-11-10----------------------------|
B|----11-------11---------11----------11-------------------------------------|
G|-10------------------------------------------------------------------------|
D|---------------------------------------------------------------------------|
A|---------------------------------------------------------------------------|
E|---------------------------------------------------------------------------|

Piano
e|-6-8---6-8------------------6-8---6-8--------------------------------------|
B|-----8-----8--8-6----8-6--------8-----8------------------------------------|
G|------------------7------7---------------8-7--8-7--------------------------|
D|---------------------------------------------------------------------------|
A|---------------------------------------------------------------------------|
E|---------------------------------------------------------------------------|

| /  slide up
| \  slide down
| h  hammer-on
| p  pull-off
| ~  vibrato
| +  harmonic
| x  Mute note
===============================================================================
Related for Oh Be One tab
Advertisement will be closed in 10 seconds