Song name
# A B C D E F G H I J K L M N O P Q R S T U V W X Y Z

Oh No Oh My - Reeks And Seeks tab

(Intro)
e|--------------------------------------------|
B|---------------------10--9--10--------------|
G|---7--7--7--9-----9-------------9--7--9-----|
D|---------------7----------------------------|
A|--------------------------------------------|
E|--------------------------------------------| 

e|--------------------------------------------|
B|---------10--9--10--------------------------|
G|------9-------------9--7--9-----------------|
D|---9----------------------------------------|
A|--------------------------------------------|
E|--------------------------------------------| 

Then the pattern repeats

e|----------------------------------------------------------------------|
B|-------10--9--10------------------10--9--10---------------------------|
G|----9-------------9--7--9------9-------------9--7--9------------------|
D|-7---------------------------9----------------------------------------|
A|----------------------------------------------------------------------|
E|----------------------------------------------------------------------|

I'm trying to get the chords soon and the higher notes.
Rate it.
Tap to rate this tab
 
# A B C D E F G H I J K L M N O P Q R S T U V W X Y Z