Song name
# A B C D E F G H I J K L M N O P Q R S T U V W X Y Z

Oh No Oh My - Reeks And Seeks tab

intro:
e|-------0----|
B|-3-3-3------|
G|------------|
D|------------|
A|------------|
E|-----|  x 1-|

first guitar:
e|---0-5-4-5-0---0---0-5-4-5-0---0-----|
B|-0-----------3---0-----------3---2---|
G|-------------------------------------|
D|-------------------------------------|
A|-------------------------------------|
E|-------------------------------------|

second guitar (0:59)
e|---------------------------------|
B|---------------------------------|
G|---------------------------------|
D|---------------------------------|
A|---------------------------------|
E|-5--0-2-7--0-2-5--0-2-7--0-2-5---|
Tap to rate this tab
# A B C D E F G H I J K L M N O P Q R S T U V W X Y Z