Song name
# A B C D E F G H I J K L M N O P Q R S T U V W X Y Z

Oh No Oh My - On The Town tab

-------------------------------------------------------------------------------
			     ON THE TOWN - Oh No! Oh My!
-------------------------------------------------------------------------------
Tabbed by: Ay
Email:

Tuning: standard

e|--------------2-x-2-2-----------------------------------------------------------------|
B|-3-x-3-3-3----2-x-2-2-----------------------------------------------------------------|
G|-3-x-3-3-3----2-x-2-2-----------------------------------------------------------------|
D|-3-x-3-3-3----4-x-4-4-----------------------------------------------------------------|
A|-0---0-0-0----4-x-4-4-----------------------------------------------------------------|
E|--------------2-x-2-2-----------------------------------------------------------------|
  "On the town beneath your window"

e|-----0-------2-4-2-0---0-----------------------------------------------------------|
B|-0-2---2-0-2---------2-------------------------------------------------------------|
G|-----------------------------------------------------------------------------------|
D|-----------------------------------------------------------------------------------|
A|-----------------------------------------------------------------------------------|
E|-----------------------------------------------------------------------------------|

e|-0---2-------------------------------------------------------------------------|
B|-3---2-------------------------------------------------------------------------|
G|-2---4-------------------------------------------------------------------------|
D|-0---4-------------------------------------------------------------------------|
A|-----2-------------------------------------------------------------------------|
E|-------------------------------------------------------------------------------|
  "I am always on the run"

e|---------0------------------------------------------------------------------------|
B|-2-3-2-0-3------------------------------------------------------------------------|
G|---------3------------------------------------------------------------------------|
D|---------3------------------------------------------------------------------------|
A|----------------------------------------------------------------------------------|
E|----------------------------------------------------------------------------------|
  "always on the run"

e|--------------------------------------------------------------------------------|
B|--------------------------------------------------------------------------------|
G|--------------------------------------------------------------------------------|
D|---2----2-----------------------------------------------------------------------|
A|-0----0-------------------------------------------------------------------------|
E|-----------4--2-2---------------------------------------------------------------|
   Bass line

easy stuff. great band. enjoy
Tap to rate this tab
 
# A B C D E F G H I J K L M N O P Q R S T U V W X Y Z