Song name
# A B C D E F G H I J K L M N O P Q R S T U V W X Y Z

Oh Sleeper - We Are The Archers tab

Help us improve GuitareTab! Take a short survey!
-------------------------------------------------------------------------------
		  We Are the Archers (solo only) - Oh, Sleeper
-------------------------------------------------------------------------------
Tabbed by: James Martyr
Email: on_the_otherside22@hotmail.com

Tuning: CGCfad


The rhythm isn't overly difficult so i'm just going to
 submit the solo for the sake of ease that i don't have 
to tab out the entire song, even tho the other tabs have 
it mostly wrong or half done. But the solo is what the tabs are missing
so i figure i post it. If you really want the rhythm posted then 
send me a message, if i get enough messages I'll do it.

Solo
d|-17-------------------------------------------------------8-11s17-13-------|
a|--------15----------------------------------------------10----------15-----|
f|---15s12--------------8--8--8--8-----------------------8--------------14---|
C|----------15s12-10s12--12-12-12-12-8s10s8--8--8--8---10-----------------15-|(x2)
G|-----------------------------------------10-10-10-10-----------------------|
C|---------------------------------------------------------------------------|

I've been playing for a year and a bit so i'll put it under intermediate,
I figure if i can play it, it can't be all to difficult.

| /  slide up
| \  slide down
| h  hammer-on
| p  pull-off
| ~  vibrato
| +  harmonic
| x  Mute note
===============================================================================
Related for We Are The Archers tab