Song name
# A B C D E F G H I J K L M N O P Q R S T U V W X Y Z

Oh Sleeper - World Without A Sun tab

I tab this out by ear/video, so its a little rough but enough to get started

here is the video link:
http://www.youtube.com/watch?v=jn2bKa3APm8

I FEAR A WORLD WITHOUT THE SUN!
e-22p17--17-----------------17-18p17--17--------------------------------------e
b------18--18-------------18--------18--18------------------------------------b
g------------19---------19----------------19----------------------------------g
d--------------19-----19--------------------19-17-15-17-15-17-----------------d
a----------------20p17--------------------------------------------------------a
d-----------------------------------------------------------------------------d

e-16-----------------------15----------------15-------------------------------e
b---17-----------------------17-14------14-17---------------------------------b
g-----18-16/15--15-16-18s19-------15--15--------------------------------------g
d-------------18--------------------17----------------------------------------d
a-----------------------------------------------------------------------------a
d-----------------------------------------------------------------------------d
                                  [x2]
Tap to rate this tab
# A B C D E F G H I J K L M N O P Q R S T U V W X Y Z