Song name
# A B C D E F G H I J K L M N O P Q R S T U V W X Y Z

Oh Sleeper - The Conscience Speaks tab

The Conscience Speaks
Oh, Sleeper
Children of Fire (2011)

Standard Tuning



e|-------5-------5-------5-------5-------5-------5-------5-------5----------|
B|-----------5-------5-------5-------5-------5-------5-------5--------------|
G|--------------------------------------------------------------------------|
D|---7----------------------------------------------------------------------|
A|-0---0---0---0---0---0---0---0---0---0---0---0---0---0---0---0------------|
E|--------------------------------------------------------------------------|


You shed his blood in my name 
To cover up the messes that he made
e|-------------------------------5-------5-------5-------5-------5----------|
B|-----------5---6---5-------6-------5-------5-------5-------5--------------|
G|---6---7---------------7---------------------------------------------[x2]-|
D|--------------------------------------------------------------------------|
A|-0---0---0---0---0---0---0---0---0---0---0---0---0---0---0---0------------|
E|--------------------------------------------------------------------------|


Will you please let it go?
Will you please let it go?
e|-----1-0~------0-------3~--5~--0-----------5-------5-------5--------------|
B|-----------3~--------------------------5-------5-------5-------5----------|
G|---2-----------------------------------------------------------------[x2]-|
D|-0-----------------2---------------7--------------------------------------|
A|-----------------3---3-----------0---0---0---0---0---0---0---0------------|
E|--------------------------------------------------------------------------|


I helped you shed in their name 
But can't you see our wounds still remain? 
e|-------------------------------5-------5-------5-------5-------5----------|
B|-----------5---6---5-------6-------5-------5-------5-------5--------------|
G|---6---7---------------7---------------------------------------------[x2]-|
D|--------------------------------------------------------------------------|
A|-0---0---0---0---0---0---0---0---0---0---0---0---0---0---0---0------------|
E|--------------------------------------------------------------------------|


Will you please let it go?
Will you please let it go?
Will you please let it go?
e|-----1-0~------0-------3~--5~--0-----------5-------5-------5--------------|
B|-----------3~--------------------------5-------5-------5-------5----------|
G|---2-----------------------------------------------------------------[x3]-|
D|-0-----------------2---------------7--------------------------------------|
A|-----------------3---3-----------0---0---0---0---0---0---0---0------------|
E|--------------------------------------------------------------------------|


Will you please let it go?
e|-----1-0~------0-------3~--5~--0------------------------------------------|
B|-----------3~-------------------------------------------------------------|
G|---2----------------------------------------------------------------------|
D|-0-----------------2------------------------------------------------------|
A|-----------------3---3-----------0~~~~------------------------------------|
E|--------------------------------------------------------------------------|
Tap to rate this tab
# A B C D E F G H I J K L M N O P Q R S T U V W X Y Z