Song name
# A B C D E F G H I J K L M N O P Q R S T U V W X Y Z

Oh Sleeper - The Conscience Speaks tab

Artist: Oh, Sleeper
Song: The Conscience Speaks
Album: Children of Fire
Label: Solid State Records


Intro: x2
E|-------------------------------------|
B|-------10-------10-------10-------10-|
G|---9--------9--------9--------9------|
D|-----7--------7--------7--------7----|
A|-0--------0--------0--------0--------|
E|-------------------------------------|

Verse: x2
E|----------------------------------------------------------------------|
B|---------------6---------------10-------10-------10-------10-------10-|
G|---6---7---9-------9---7---6--------9--------9--------9--------9------|
D|-----7-------7-------7-------7--------7--------7--------7--------7----|
A|-0-------0-------0-------0--------0--------0--------0--------0--------|
E|----------------------------------------------------------------------|

Chorus: x2
E|-------------------------------5-------------------------------------|
B|---6---5---6---5---6---5---6-----------10-------10-------10-------10-|
G|-----7-------7-------7-------7-----9--------9--------9--------9------|
D|-0-------0-------0-------0-----------7--------7--------7--------7----|
A|---------------------------------0--------0--------0--------0--------|
E|---------------------------------------------------------------------|

(Not sure the chorus is perfect but it's good enough for me...)
Tap to rate this tab
# A B C D E F G H I J K L M N O P Q R S T U V W X Y Z