Song name
# A B C D E F G H I J K L M N O P Q R S T U V W X Y Z

Oh Sleeper - Endseekers tab

These are the long notes that ring in the start and chorus of the song
Endseekers by Oh Sleeper.


Let each note ring.

Intro
D:-10----12-11------15--|b
A:----------------------|
F:----8-----------------|
C:------0------14-13----|
G:----------------------|
C:----------------------|

Chorus
D:-10----13-12-----10-|
A:-------------8-10---|
F:----8---------------|
C:-----0--------------|
G:--------------------|
C:--------------------|
Tap to rate this tab
# A B C D E F G H I J K L M N O P Q R S T U V W X Y Z