Guitaretab - guitar tabs
Song name
# A B C D E F G H I J K L M N O P Q R S T U V W X Y Z

Oh The Blood - Prophet tab

-------------------------------------------------------------------------------
Prophet - Oh The Blood
-------------------------------------------------------------------------------
Tabbed by:j-bob95
Email:jacobdametalhead@hotmail.com

Tuning:Drop d ( d-a-d-g-b-e )


This is my first tab, and I think its right for the most part. If its not, please let me
and btw this is a great band so no rippin on the song or band. Have fun!!!

e|-------------------------------------------------------------------------|
B|-------------------------------------------------------------------------|
G|-------------------------------------------------------------------------|
D|-----------------------0-------5-------8-------5-------------------------|
A|-5--7--8--7--8--10--8--0-------3-------8-------3-------------------------|
D|-----------------------0-------3-------8-------3-------------------------|

e|-------------------------------------------------------------------------|
B|-------------------------------------------------------------------------|
G|-------------------------------------------------------------------------|
D|-0----0--------------------------5----5--------------------8----8-5----5-|
A|-0----0----------REP. FOUR TIMES-3----3---------REP. TWICW-8----8-3----3-|
D|-0-0x-0-0x-0x-0x-----------------3-3x-3-3x-3x-3x-----------8-8x-8-3-3x-3-|

e|-----------------------------------------------------------------------------|
B|-----------------------------------------------------------------------------|
G|-----------------------------------------------------------------------------|
D|----------0---------PICK SLIDE---8-------------------------------------------|
A|----------0----------------------8-x9---------7p0-8p0-10p0-8p0-12p0-12p10p8--|
D|-3x-3x-3x-0----------------------8-----0x-0-0x-------------------------------|
[ Tab from: http://www.guitaretab.com/o/oh-the-blood/189185.html ]
e|------------------------------------------------------------------------------|
B|------------------------------------------------------------------------------|
G|------------------------------------------------------------------------------|
D|-8------------------------------------8---------------------------------------|
A|-8-x9---------------------------------8-x9-0x-0-0x-7p0-8p0-10p0-12p0-12p10p8--|
D|-8----0x-0-0x-2p0-3p0-0x-0-0x-2p0-3p0-8---------------------------------------|

e|-------------------------------------------------------------------------|
B|-------------------------------------------------------------------------|
G|-------------------------------------------------------------------------|
D|-8-----------------------------------------------------------------------|
A|-8-x9--------------------------------------------------------------------|
D|-8-----0x-0-0x-2p0-3p0-x7-5-3-2-3-2-0-0x-0-0x-2p0-3p0-x7-5-3-2-3-2-0-----|

e|-------------------------------------------------------------------------|
B|-------------------------------------------------------------------------|
G|-------------------------------------------------------------------------|
D|-10-12-12-12-12-10p7-10p7-x2-0----3----5-----7---8---7---12----0x--------|
A|-----------------------------0----3----5-----7---8---7---12-x2-0x--------|
D|-----------------------------0----3----5-----7---8---7---12----0x--------|

e|-----------------------------------------------------------------------------|
B|-----6----------6------------------------------------------------------13----|
G|-----9----------9------------------------------------------------------15----|
D|-0x----0x-0x-0x---0x-0x-7-7-7----7-7-7---------------------------------------|
A|-0x----0x-0x-0x---0x-0x-6-6-6 x4-6-6-6-x2--REP., BUT DISTRESS CHORDS ARE ----|
D|-0x----0x-0x-0x---0x-0x------------------------------------------------------|

e|-------------------------------------------------------------------------|
B|-------------------------------------------------------------------------|
G|-------------------------------------------------------------------------|
D|-0-----------------------------------------------------------------------|
A|-0-HOLD------------------------------------------------------------------|
D|-0-----------------------------------------------------------------------|


	Thatís all I know, itís a start, so if you know the rest email me or leave a comment 
help me out!!!
         -P.S., if the lines are messed up a little sorry, wierd font!! :(

| /  slide up
| \  slide down
| h  hammer-on
| p  pull-off
| ~  vibrato
| +  harmonic
| x  Mute note
===============================================================================

http://www.myspace.com/ohthebloodband
Related for Prophet tab