Song name
# A B C D E F G H I J K L M N O P Q R S T U V W X Y Z

Oh The Blood - Counterparts tab

     ----------------------------------------------------------------
                      Counterparts - Oh The Blood
     ----------------------------------------------------------------
Tuning: Drop D (E B G D A D)
Tabbed By: Bradley
Key:
.=Palm Mute
~=Let Note Ring
Intro (0:00-0:27)
E------------------------------------------------------------------------|
B------------------------------------------------------------------------|
G------------------------------------------------------------------------|
D-1---3-----(x2)-------0----3---(x2)-----0~------------------------------|
A-1-----4--------------0-----4-----------0~------------------------------|
D-1--------------------0-----------------0~------------------------------|
  . Figure out rythm   .                 Let note ring into verse

Verse (0:28-0:40)
E------------------------------------------------------------------------|
B------------------------------------------------------------------------|
G------------------------5(x4)----------5(x4)------(x2)------------------|
D--0--------3--------0-0-3------0-0-0-0-3----0-0----------0~-------------|
A--0-(x10)--3-(x10)--0-0--------0-0-0-0------0-0----------0~-------------|
D--0--------3--------0-0--------0-0-0-0------0-0----------0~-------------|
                     . .        . . . .      . .
(Not exact # of strums)do the whole thing twice, then let the last note ring

Breakdown (0:41-0:55)
E-----------------------------------------------------------------------|
B-----------------------------------------------------------------------|
G-----------------------------------------------------------------------|
D-0-(x?)--------0-0-0--0-0-0--0~-0~-------------------------------------|
A-0-------------0-0-0--0-0-0--0~-0~-------------------------------------|
D-0-------------0-0-0--0-0-0--0~-0~-------------------------------------|
  .             . . .  . . .  .  .
Figure out the srtumming pattern(not hard)

Repeat Verse(x2)(0:56-1:23)

Bridge (1:24-1:56)
E-----------------------------------------------------------------------|
B-----------------------------------------------------------------------|
G-----------------------------------------------------------------------|
D-7-5-3-2--0~-3~-5~-5~-8~---7~-5~-5~-0~-------0~------------------------|
A-7-5-3-2--0~-3~-5~-5~-8~---7~-5~-5~-0~--(x2)-0~------------------------|
D-7-5-3-2--0~-3~-3~-7~-10~--9~-7~-3~-0~-------0~------------------------|
  . . . .                                     .
On the second time, palm mute the open strings and let them ring
(this part needs work, im not sure about the chords here)

                                 That's all for now,
                                I'll continue working on it
Tap to rate this tab
# A B C D E F G H I J K L M N O P Q R S T U V W X Y Z