Song name
# A B C D E F G H I J K L M N O P Q R S T U V W X Y Z

Oh The Blood - Heartbreak tab

This band is great and unfortunately they broke up. seeing how nobody else has any good 
for their songs, i decided to do the deed.

Tuning: D A D G B E (Drop-D)

Intro (starts with synth and then guitars come in)
(0:08)
Guitar 1                                 Guitar 2
E------------------------------        E-------------------------------|
B------------------------------        B-------------------------------|
G------------------------------        G--9------10-----10-----9-------|
D--0------8------3------2------ x4     D--x-x8---x-x8---x-x8---x-x8----| x4
A--0-x8---8-x8---3-x8---3-x8---        A--7------8------8------7-------|
D--0------8------3------2------        D-------------------------------|


(0:35)
E------------------------------------|
B------------------------------------|
G------------------------------------|
D-8~------------0~--------8~--10~----|
A-8~------------0~--------8~--10~----|
D-8~------------0~--------8~--10~----|

(0:50)
Guitar 1
E-----------------|
B-----------------|
G-----------------|
D-0~----8~--10~---|
A-0~----8~--10~---|
D-0~----8~--10~---|

Guitar 2
E----------------------------------------------------------------------|
B----------------------------------------------------------------------|
G----------------------------------------------------------------------|
D----------------------------------------------------------------------|
A----8---8----8---8----8---8h10----7---7----7---7----7---7h8-----------|
D-00---0---00---0---00---0------00---0---00---0---00---0---------------|
  ..   .   ..   .   ..   .      ..   .   ..   .   ..   .
E--------------------------------------------------------------------------|
B--------------------------------------------------------------------------|
G--------------------------------------------------------------------------|
D--------------------------------------------------------------------------|
A----12---12----8---8----8---8h10------8----8------7----7------7----7h8----|
D-88----8----88---8---88---8------1010---10---1010---10---1010---10--------|
  ..    .    ..   .   ..   .       ..     .    ..     .    ..     .
(1:01)
Guitar 1 (plays harmony with guitar 2 above)
E--------------------------------------------------------------------------|
B--------------------------------------------------------------------------|
G--------------------------------------------------------------------------|
D--------------------------------------------------------------------------|
A----12---12----12---12----12---12h13----10---10----10---10----10---10h12--|
D-00----0----00----0----00----0-------00----0----00----0----00----0--------|
  ..    .    ..    .    ..    .       ..    .    ..    .    ..    .
E--------------------------------------------------------------------------|
B--------------------------------------------------------------------------|
G--------------------------------------------------------------------------|
D----10---10----7---7----7---7h8-----7----7--------------------------------|
A------------------------------------------------10----10------10----10h12-|
D-88----8----88---8---88---8-----1010--10---1010----10----1010----10-------|
  ..    .    ..   .   ..   .      ..    .    ..      .     ..      .


(1:20)
Guitar 1
E-----------------------------------------------------------|
B-----------------------------------------------------------|
G-----------------------------------------------------------|
D-0~-----------------0~-------------------8------10---------| x2
A-0~-----------------0~-------------------8-x16--10-x16-----|
D-0~-----------------0~-------------------8------10---------|

Guitar 2
E-----------------------------------------------------------|
B-----------------------------------------------------------|
G-----779999---------------7710101010-----10-----12---------|
D-----xxxxxx---------------xxx-x-x-x------x-x16--x-x16------| x2
A-----557777---------------558-8-8-8------8------10---------|
D-----------------------------------------------------------|

(1:39)
Guitar 1
E--------------------------------------------------------------------|
B--------------------------------------------------------------------|
G--------------------------------------------------------------------|
D-0000-------000-0----------0000----------000-0----------8~-----10~--| x2
A-0000-------000-0----------0000----------000-0----------8~-----10~--|
D-0000-------000-0----------0000----------000-0----------8~-----10~--|

Guitar 2
E---------------------------------------------------------------------|
B---------------------------------------------------------------------|
G-------9-------------9--------------9--------------9-----------------|
D-------x-4-----------x-x4-----------x-x4-----------x-x4--------------| x2
A-------7-------------7--------------7--------------7-----------------|
D---------------------------------------------------------------------|

(1:54)
Guitar 1
E------------------------------------|
B------------------------------------|
G------------------------------------|
D-0000--0-000--0--0000--0-000--0-----|
A-0000--0-000--0--0000--0-000--0-----|
D-0000--0-000--0--0000--0-000--0-----|
  ....  . ...  .  ....  . ...  .
(1:58)
Guitar 1
E--------------------------------------------------------|
B------------------------------6-6-6-6-------------------|
G------------------------------9-9-9-9-------------------|
D-0000--0-000--0--0000--0-000----------------------------| x4
A-0000--0-000--0--0000--0-000----------------------------|
D-0000--0-000--0--0000--0-000----------------------------|
  ....  . ...  .  ....  . ...

Guitar 2
E--------------------------------------------------------|
B--------------------------------------------------------|
G-------------------------------9-9-9-9------------------|
D-------------------------------x-x-x-x------------------| x4
A-------------------------------7-7-7-7------------------|
D--------------------------------------------------------|

(2:19)
Guitar 1
E-----------------------------------------------------------------|
B-----------------------------------------------------------------|
G-----------------------------------------------------------------|
D-0---------0-------------0---------------------------------------|
A-0-8p0h8p0-0-8p0h10p0h7--0-8p0h8p0--10-8-7h8p7/3-------    ------|
D-0---------0-------------0---------------------------------------|         ]
                                                                 ]x2
E-----------------------------------------------------------------|         ]
B-------------------------------------------------------     -----|
G------------------------------------2-3/5------------------------|
D-0---------0-------------0----------x-x-x------------------------|
A-0-8p0h8p0-0-8p0h10poh7--0-8p0h8po--0-1/3------------------------|
D-0---------0-------------0---------------------------------------|

(2:37)
Guitar 1
E-----------------------------|
B-----------------------------|
G-----------------------------|
D-0~-2~--8~-10~-0~-0~-8~-10~--|
A-0~-2~--8~-10~-0~-0~-8~-10~--|
D-0~-2~--8~-10~-0~-0~-8~-10~--|

Guitar 2
E-------------------------------------------------------|
B-------------------------------------------------------|
G-7~9~---10-----9------10-----7------10----9-----10-----|
D-x-x----x-x16--x-x16--x-x16--x-x16--x-x16-x-x8--x-x8---|
A-5~7~---8------7------8------5------8-----7-----8------|
D-------------------------------------------------------|

(2:57)
Guitar 1
E-----------------|
B-----------------|
G-----------------|
D-0--0-000--------|
A-0--0-000--------|
D-0--0-000--------|
  .  . ...

(2:59)
Guitar 1&2
E----------------------------------------|
B----------------------------------------|
G-------------------------3-5------------|
D-000-0-000--0--000-0-000-3-5------------| x4
A-000-0-000--0--000-0-000-1-3------------|
D-000-0-000--0--000-0-000----------------|
  ... . ...  .  ... . ...
Tap to rate this tab
 
# A B C D E F G H I J K L M N O P Q R S T U V W X Y Z