Song name
# A B C D E F G H I J K L M N O P Q R S T U V W X Y Z

Oh The Blood - What Society Calls tab

Intro:

First Guitar:

e | ----------------------------------------------------------------------|
B | ----------------------------------------------------------------------|
G | ---7--9--10--5--7--14--12--15--14-12-10--14--12--10--9--5--7~~--------|
D | -0---0--0--0--0--0---0---0---0---0--0---0---0---0--0---0--0-----------|
A | ----------------------------------------------------------------------|
E  |------------------------------------------------------------- --------|

Second guitar:

e | ---------------------------------------------------------------------|
B |----------------------13--11--15--13--11----13--11--------------------|
G |---10--12--14--9--10---------------------14--------14--12--9--10~~----|
D |-0---0----0--0--0---0---0---0---0---0---0--0---0--0---0---0--0--------|
A |----------------------------------------------------------------------|
E |----------------------------------------------------------------------|

Make sure u play an open D between every note on both guitars and both guitar should 
match when playing together.

The first guitar will play the tab 4 times all together and the second guitar will come 
in after the second time the tab is played. Both guitars will end at the same time.

The guitars sound like they are slowing down at the end for the fourth time you play the tab.
Tap to rate this tab
 
# A B C D E F G H I J K L M N O P Q R S T U V W X Y Z