Song name
# A B C D E F G H I J K L M N O P Q R S T U V W X Y Z

Ohrenfeindt - Schwarz Auf Wei tab

[Damit ihr zum laufendem song spielen könnt müsst ihr als erstes eure 
gitarre umstimmen: D | G |C | F | A | D , 
natürlich kann man das auch auf der normalen stimmung spielen ;) ]

( / = Slide    ( )= muss nicht unbedingt gespielt werden )

Strophe:

Git.1:
D-|----3-----------------|----3-------------3-0-||
A-|3/5---5-3-0---0-------|3/5---5-3-0---0-------||
F-|------------2---2-0---|------------2---2-----||
C-|--------------------2-|----------------------||
G-|--------------------2-|----------------------||
D-|--------------------0-|----------------------||
Git.2:
D-|----------------------||
A-|----------------------||
F-|----------------------||
C-|2-----2-----2--0--2---||
G-|2-----2-----2--0--2---||
D-|0-----0-----0-----0---||

Refrain:

Git.1/2:
D-|----------------------||
A-|----------------------||
F-|2---2-2-2-------2-----||       x3
C-|2---2-2-2--(5)--2-----||
G-|0---0-0-0--(5)--0-----||
D-|----------- 3 --------||



D-|-----3----------------|
A-|----3-----------------|
F-|---0------------------|   [du bist heiß...]
C-|--0-------------------|
G-|-2--------------------|
D-|3---------------------|


Ablauf:

[Strophe]

Du kennst mich und ich kenn Dich:
böses Mädchen Du, böser Junge ich.
Drumrum reden müssen wir wohl nicht:
Ich will Dich und Du willst mich.

[Refrain]

Du willst es,
ich geb's Dir
schwarz auf weiß:
Du bist heiß!
        
[Strophe]

'N heißer Kuss, mir kocht das Blut,
Deine Lippen schmecken viel zu gut!
Böser Junge ich, böses Mädchen Du:
Du kippst Benzin auf die Glut.

[Refrain]

Du willst es,
ich geb's Dir
schwarz auf weiß:
Du bist heiß!

["Strophe"]

Du bist heiß,so heiß!

__________________________________________
herausgehört von M.S.

Tap to rate this tab
# A B C D E F G H I J K L M N O P Q R S T U V W X Y Z